  0
SECTION
  2
HEADER
  9
$ACADVER
  1
AC1012
  9
$DWGCODEPAGE
  3
ansi_1252
  9
$INSBASE
 10
0.0
 20
0.0
 30
0.0
  9
$EXTMIN
 10
0.0
 20
0.0
 30
0.0
  9
$EXTMAX
 10
11.0
 20
8.5
 30
0.0
  9
$LIMMIN
 10
0.0
 20
0.0
  9
$LIMMAX
 10
11.0
 20
8.5
  9
$ORTHOMODE
 70
     0
  9
$REGENMODE
 70
     1
  9
$FILLMODE
 70
     1
  9
$QTEXTMODE
 70
     0
  9
$MIRRTEXT
 70
     1
  9
$DRAGMODE
 70
     2
  9
$LTSCALE
 40
1.0
  9
$OSMODE
 70
    37
  9
$ATTMODE
 70
     1
  9
$TEXTSIZE
 40
0.125
  9
$TRACEWID
 40
0.05
  9
$TEXTSTYLE
  7
STANDARD
  9
$CLAYER
  8
0
  9
$CELTYPE
  6
BYLAYER
  9
$CECOLOR
 62
   256
  9
$CELTSCALE
 40
1.0
  9
$DELOBJ
 70
     1
  9
$DISPSILH
 70
     0
  9
$DIMSCALE
 40
1.0
  9
$DIMASZ
 40
0.13
  9
$DIMEXO
 40
0.05
  9
$DIMDLI
 40
0.38
  9
$DIMRND
 40
0.0
  9
$DIMDLE
 40
0.0
  9
$DIMEXE
 40
0.125
  9
$DIMTP
 40
0.0
  9
$DIMTM
 40
0.0
  9
$DIMTXT
 40
0.125
  9
$DIMCEN
 40
0.09
  9
$DIMTSZ
 40
0.0
  9
$DIMTOL
 70
     0
  9
$DIMLIM
 70
     0
  9
$DIMTIH
 70
     1
  9
$DIMTOH
 70
     1
  9
$DIMSE1
 70
     0
  9
$DIMSE2
 70
     0
  9
$DIMTAD
 70
     0
  9
$DIMZIN
 70
     0
  9
$DIMBLK
  1

  9
$DIMASO
 70
     1
  9
$DIMSHO
 70
     1
  9
$DIMPOST
  1

  9
$DIMAPOST
  1

  9
$DIMALT
 70
     0
  9
$DIMALTD
 70
     2
  9
$DIMALTF
 40
25.4
  9
$DIMLFAC
 40
0.5
  9
$DIMTOFL
 70
     0
  9
$DIMTVP
 40
0.0
  9
$DIMTIX
 70
     0
  9
$DIMSOXD
 70
     0
  9
$DIMSAH
 70
     0
  9
$DIMBLK1
  1

  9
$DIMBLK2
  1

  9
$DIMSTYLE
  2
STANDARD
  9
$DIMCLRD
 70
     0
  9
$DIMCLRE
 70
     0
  9
$DIMCLRT
 70
     0
  9
$DIMTFAC
 40
1.0
  9
$DIMGAP
 40
0.06
  9
$DIMJUST
 70
     0
  9
$DIMSD1
 70
     0
  9
$DIMSD2
 70
     0
  9
$DIMTOLJ
 70
     1
  9
$DIMTZIN
 70
     0
  9
$DIMALTZ
 70
     0
  9
$DIMALTTZ
 70
     0
  9
$DIMFIT
 70
     3
  9
$DIMUPT
 70
     0
  9
$DIMUNIT
 70
     2
  9
$DIMDEC
 70
     3
  9
$DIMTDEC
 70
     3
  9
$DIMALTU
 70
     2
  9
$DIMALTTD
 70
     2
  9
$DIMTXSTY
  7
STANDARD
  9
$DIMAUNIT
 70
     0
  9
$LUNITS
 70
     2
  9
$LUPREC
 70
     2
  9
$SKETCHINC
 40
0.1
  9
$FILLETRAD
 40
0.5
  9
$AUNITS
 70
     0
  9
$AUPREC
 70
     2
  9
$MENU
  1
.
  9
$ELEVATION
 40
0.0
  9
$PELEVATION
 40
0.0
  9
$THICKNESS
 40
0.0
  9
$LIMCHECK
 70
     0
  9
$CHAMFERA
 40
0.5
  9
$CHAMFERB
 40
0.5
  9
$CHAMFERC
 40
1.0
  9
$CHAMFERD
 40
0.0
  9
$SKPOLY
 70
     0
  9
$TDCREATE
 40
2455783.998480961
  9
$TDUPDATE
 40
2455783.998480972
  9
$TDINDWG
 40
0.0000000116
  9
$TDUSRTIMER
 40
0.0000000116
  9
$USRTIMER
 70
     1
  9
$ANGBASE
 50
0.0
  9
$ANGDIR
 70
     0
  9
$PDMODE
 70
     0
  9
$PDSIZE
 40
-1.0
  9
$PLINEWID
 40
0.0
  9
$COORDS
 70
     1
  9
$SPLFRAME
 70
     0
  9
$SPLINETYPE
 70
     6
  9
$SPLINESEGS
 70
     8
  9
$ATTDIA
 70
     0
  9
$ATTREQ
 70
     1
  9
$HANDLING
 70
     1
  9
$HANDSEED
  5
704
  9
$SURFTAB1
 70
     6
  9
$SURFTAB2
 70
     6
  9
$SURFTYPE
 70
     6
  9
$SURFU
 70
     6
  9
$SURFV
 70
     6
  9
$UCSNAME
  2

  9
$UCSORG
 10
0.0
 20
0.0
 30
0.0
  9
$UCSXDIR
 10
1.0
 20
0.0
 30
0.0
  9
$UCSYDIR
 10
0.0
 20
1.0
 30
0.0
  9
$PUCSNAME
  2

  9
$PUCSORG
 10
0.0
 20
0.0
 30
0.0
  9
$PUCSXDIR
 10
1.0
 20
0.0
 30
0.0
  9
$PUCSYDIR
 10
0.0
 20
1.0
 30
0.0
  9
$USERI1
 70
     0
  9
$USERI2
 70
     0
  9
$USERI3
 70
     0
  9
$USERI4
 70
     0
  9
$USERI5
 70
     0
  9
$USERR1
 40
0.0
  9
$USERR2
 40
0.0
  9
$USERR3
 40
0.0
  9
$USERR4
 40
0.0
  9
$USERR5
 40
0.0
  9
$WORLDVIEW
 70
     1
  9
$SHADEDGE
 70
     3
  9
$SHADEDIF
 70
    70
  9
$TILEMODE
 70
     1
  9
$MAXACTVP
 70
    64
  9
$PINSBASE
 10
0.0
 20
0.0
 30
0.0
  9
$PLIMCHECK
 70
     0
  9
$PEXTMIN
 10
1.0000000000E+20
 20
1.0000000000E+20
 30
1.0000000000E+20
  9
$PEXTMAX
 10
-1.0000000000E+20
 20
-1.0000000000E+20
 30
-1.0000000000E+20
  9
$PLIMMIN
 10
0.0
 20
0.0
  9
$PLIMMAX
 10
12.0
 20
9.0
  9
$UNITMODE
 70
     0
  9
$VISRETAIN
 70
     1
  9
$PLINEGEN
 70
     0
  9
$PSLTSCALE
 70
     1
  9
$TREEDEPTH
 70
  3020
  9
$PICKSTYLE
 70
     1
  9
$CMLSTYLE
  2
STANDARD
  9
$CMLJUST
 70
     0
  9
$CMLSCALE
 40
1.0
  9
$SAVEIMAGES
 70
     1
  0
ENDSEC
  0
SECTION
  2
CLASSES
  0
CLASS
  1
ACDBDICTIONARYWDFLT
  2
AcDbDictionaryWithDefault
  3
ObjectDBX Classes
 90
    32768
280
     0
281
     0
  0
CLASS
  1
VISUALSTYLE
  2
AcDbVisualStyle
  3
ObjectDBX Classes
 90
     4095
280
     0
281
     0
  0
CLASS
  1
SCALE
  2
AcDbScale
  3
ObjectDBX Classes
 90
     1153
280
     0
281
     0
  0
CLASS
  1
DICTIONARYVAR
  2
AcDbDictionaryVar
  3
ObjectDBX Classes
 90
        0
280
     0
281
     0
  0
CLASS
  1
XRECORD
  2
AcDbXrecord
  3
AutoCAD 2000
 90
    32768
280
     0
281
     0
  0
CLASS
  1
LWPOLYLINE
  2
AcDbPolyline
  3
AutoCAD 2000
 90
    32768
280
     0
281
     1
  0
CLASS
  1
HATCH
  2
AcDbHatch
  3
AutoCAD 2000
 90
    32768
280
     0
281
     1
  0
CLASS
  1
ACDBPLACEHOLDER
  2
AcDbPlaceHolder
  3
ObjectDBX Classes
 90
        0
280
     0
281
     0
  0
CLASS
  1
LAYOUT
  2
AcDbLayout
  3
ObjectDBX Classes
 90
        0
280
     0
281
     0
  0
ENDSEC
  0
SECTION
  2
TABLES
  0
TABLE
  2
VPORT
  5
8
330
0
100
AcDbSymbolTable
 70
     1
  0
VPORT
  5
29
330
8
100
AcDbSymbolTableRecord
100
AcDbViewportTableRecord
  2
*ACTIVE
 70
     0
 10
0.0
 20
0.0
 11
1.0
 21
1.0
 12
5.5
 22
4.25
 13
0.0
 23
0.0
 14
0.5
 24
0.5
 15
0.5
 25
0.5
 16
0.0
 26
0.0
 36
1.0
 17
0.0
 27
0.0
 37
0.0
 40
8.5
 41
1.2941176471
 42
50.0
 43
0.0
 44
0.0
 50
0.0
 51
0.0
 71
     0
 72
  2000
 73
     1
 74
     3
 75
     0
 76
     0
 77
     0
 78
     0
  0
ENDTAB
  0
TABLE
  2
LTYPE
  5
5
330
0
100
AcDbSymbolTable
 70
     6
  0
LTYPE
  5
14
330
5
100
AcDbSymbolTableRecord
100
AcDbLinetypeTableRecord
  2
BYBLOCK
 70
     0
  3

 72
    65
 73
     0
 40
0.0
  0
LTYPE
  5
15
330
5
100
AcDbSymbolTableRecord
100
AcDbLinetypeTableRecord
  2
BYLAYER
 70
     0
  3

 72
    65
 73
     0
 40
0.0
  0
LTYPE
  5
16
330
5
100
AcDbSymbolTableRecord
100
AcDbLinetypeTableRecord
  2
CONTINUOUS
 70
     0
  3
Solid line
 72
    65
 73
     0
 40
0.0
  0
LTYPE
  5
3B
330
5
100
AcDbSymbolTableRecord
100
AcDbLinetypeTableRecord
  2
HIDDEN
 70
     0
  3
Hidden __ __ __ __ __ __ __ __ __ __ __ __ __ __
 72
    65
 73
     2
 40
0.075
 49
0.05
 74
     0
 49
-0.025
 74
     0
  0
LTYPE
  5
3C
330
5
100
AcDbSymbolTableRecord
100
AcDbLinetypeTableRecord
  2
PHANTOM
 70
     0
  3
Phantom ______  __  __  ______  __  __  ______
 72
    65
 73
     6
 40
0.5
 49
0.25
 74
     0
 49
-0.05
 74
     0
 49
0.05
 74
     0
 49
-0.05
 74
     0
 49
0.05
 74
     0
 49
-0.05
 74
     0
  0
LTYPE
  5
3D
330
5
100
AcDbSymbolTableRecord
100
AcDbLinetypeTableRecord
  2
CENTER
 70
     0
  3
Center ____ _ ____ _ ____ _ ____ _ ____ _ ____
 72
    65
 73
     4
 40
0.4
 49
0.25
 74
     0
 49
-0.05
 74
     0
 49
0.05
 74
     0
 49
-0.05
 74
     0
  0
LTYPE
  5
3E
330
5
100
AcDbSymbolTableRecord
100
AcDbLinetypeTableRecord
  2
CENTERX2
 70
     0
  3
Center (2x) ________  __  ________  __  _____
 72
    65
 73
     4
 40
0.8
 49
0.5
 74
     0
 49
-0.1
 74
     0
 49
0.1
 74
     0
 49
-0.1
 74
     0
  0
LTYPE
  5
3F
330
5
100
AcDbSymbolTableRecord
100
AcDbLinetypeTableRecord
  2
DOT2
 70
     0
  3
Dot (.5x) ........................................
 72
    65
 73
     2
 40
0.025
 49
0.0
 74
     0
 49
-0.025
 74
     0
  0
ENDTAB
  0
TABLE
  2
LAYER
  5
2
330
0
100
AcDbSymbolTable
 70
     2
  0
LAYER
  5
10
330
2
100
AcDbSymbolTableRecord
100
AcDbLayerTableRecord
  2
0
 70
     0
 62
     7
  6
CONTINUOUS
  0
LAYER
  5
40
330
2
100
AcDbSymbolTableRecord
100
AcDbLayerTableRecord
  2
FORMAT
 70
     0
 62
     7
  6
CONTINUOUS
  0
ENDTAB
  0
TABLE
  2
STYLE
  5
3
330
0
100
AcDbSymbolTable
 70
     4
  0
STYLE
  5
11
330
3
100
AcDbSymbolTableRecord
100
AcDbTextStyleTableRecord
  2
STANDARD
 70
     0
 40
0.0
 41
1.0
 50
0.0
 71
     0
 42
0.2
  3
txt
  4

  0
STYLE
  5
6E
330
3
100
AcDbSymbolTableRecord
100
AcDbTextStyleTableRecord
  2
SLDTEXTSTYLE0
 70
     0
 40
0.0
 41
0.75
 50
0.0
 71
     0
 42
0.2
  3
TXT
  4

  0
STYLE
  5
93
330
3
100
AcDbSymbolTableRecord
100
AcDbTextStyleTableRecord
  2
SLDTEXTSTYLE1
 70
     0
 40
0.0
 41
0.6875
 50
0.0
 71
     0
 42
0.2
  3
TXT
  4

  0
STYLE
  5
99
330
3
100
AcDbSymbolTableRecord
100
AcDbTextStyleTableRecord
  2
SLDTEXTSTYLE2
 70
     0
 40
0.0
 41
0.6944444444
 50
0.0
 71
     0
 42
0.2
  3
TXT
  4

  0
ENDTAB
  0
TABLE
  2
VIEW
  5
6
330
0
100
AcDbSymbolTable
 70
     0
  0
ENDTAB
  0
TABLE
  2
UCS
  5
7
330
0
100
AcDbSymbolTable
 70
     0
  0
ENDTAB
  0
TABLE
  2
APPID
  5
9
330
0
100
AcDbSymbolTable
 70
     1
  0
APPID
  5
12
330
9
100
AcDbSymbolTableRecord
100
AcDbRegAppTableRecord
  2
ACAD
 70
     0
  0
ENDTAB
  0
TABLE
  2
DIMSTYLE
  5
A
330
0
100
AcDbSymbolTable
 70
     1
  0
DIMSTYLE
105
27
330
A
100
AcDbSymbolTableRecord
100
AcDbDimStyleTableRecord
  2
STANDARD
 70
     0
  3

  4

  5

  6

  7

 40
1.0
 41
0.18
 42
0.0625
 43
0.38
 44
0.18
 45
0.0
 46
0.0
 47
0.0
 48
0.0
140
0.18
141
0.09
142
0.0
143
25.4
144
1.0
145
0.0
146
1.0
147
0.09
 71
     0
 72
     0
 73
     1
 74
     1
 75
     0
 76
     0
 77
     0
 78
     0
170
     0
171
     2
172
     0
173
     0
174
     0
175
     0
176
     0
177
     0
178
     0
270
     2
271
     4
272
     4
273
     2
274
     2
340
11
275
     0
280
     0
281
     0
282
     0
283
     1
284
     0
285
     0
286
     0
287
     3
288
     0
  0
ENDTAB
  0
TABLE
  2
BLOCK_RECORD
  5
1
330
0
100
AcDbSymbolTable
 70
     4
  0
BLOCK_RECORD
  5
1F
330
1
100
AcDbSymbolTableRecord
100
AcDbBlockTableRecord
  2
*MODEL_SPACE
  0
BLOCK_RECORD
  5
1B
330
1
100
AcDbSymbolTableRecord
100
AcDbBlockTableRecord
  2
*PAPER_SPACE
  0
BLOCK_RECORD
  5
A8
330
1
100
AcDbSymbolTableRecord
100
AcDbBlockTableRecord
  2
SW_NOTE_0
  0
BLOCK_RECORD
  5
AE
330
1
100
AcDbSymbolTableRecord
100
AcDbBlockTableRecord
  2
SW_NOTE_1
  0
BLOCK_RECORD
  5
C2
330
1
100
AcDbSymbolTableRecord
100
AcDbBlockTableRecord
  2
SW_NOTE_2
  0
ENDTAB
  0
ENDSEC
  0
SECTION
  2
BLOCKS
  0
BLOCK
  5
20
330
1F
100
AcDbEntity
  8
0
100
AcDbBlockBegin
  2
*MODEL_SPACE
 70
     0
 10
0.0
 20
0.0
 30
0.0
  3
*MODEL_SPACE
  1

  0
ENDBLK
  5
21
330
1F
100
AcDbEntity
  8
0
100
AcDbBlockEnd
  0
BLOCK
  5
1C
330
1B
100
AcDbEntity
 67
     1
  8
0
100
AcDbBlockBegin
  2
*PAPER_SPACE
 70
     0
 10
0.0
 20
0.0
 30
0.0
  3
*PAPER_SPACE
  1

  0
ENDBLK
  5
1D
330
1B
100
AcDbEntity
 67
     1
  8
0
100
AcDbBlockEnd
  0
BLOCK
  5
A9
330
A8
100
AcDbEntity
  8
0
100
AcDbBlockBegin
  2
SW_NOTE_0
 70
     0
 10
0.0
 20
0.0
 30
0.0
  3
SW_NOTE_0
  1

  0
MTEXT
  5
AB
330
A8
100
AcDbEntity
  8
0
  6
CONTINUOUS
 62
     0
100
AcDbMText
 10
0.0
 20
0.0773440644
 30
0.0
 40
0.06
 41
0.0
 71
     1
 72
     1
  1
INTERPRET GEOMETRIC
  7
SLDTEXTSTYLE0
  0
MTEXT
  5
AC
330
A8
100
AcDbEntity
  8
0
  6
CONTINUOUS
 62
     0
100
AcDbMText
 10
0.0
 20
-0.0220260102
 30
0.0
 40
0.06
 41
0.0
 71
     1
 72
     1
  1
TOLERANCING PER:
  7
SLDTEXTSTYLE0
  0
ENDBLK
  5
AA
330
A8
100
AcDbEntity
  8
0
100
AcDbBlockEnd
  0
BLOCK
  5
AF
330
AE
100
AcDbEntity
  8
0
100
AcDbBlockBegin
  2
SW_NOTE_1
 70
     0
 10
0.0
 20
0.0
 30
0.0
  3
SW_NOTE_1
  1

  0
MTEXT
  5
B1
330
AE
100
AcDbEntity
  8
0
  6
CONTINUOUS
 62
     0
100
AcDbMText
 10
0.0
 20
0.0837894031
 30
0.0
 40
0.065
 41
0.0
 71
     1
 72
     1
  1
DIMENSIONS ARE IN INCHES
  7
SLDTEXTSTYLE0
  0
MTEXT
  5
B2
330
AE
100
AcDbEntity
  8
0
  6
CONTINUOUS
 62
     0
100
AcDbMText
 10
0.0
 20
-0.0205806729
 30
0.0
 40
0.065
 41
0.0
 71
     1
 72
     1
  1
TOLERANCES:
  7
SLDTEXTSTYLE0
  0
MTEXT
  5
B3
330
AE
100
AcDbEntity
  8
0
  6
CONTINUOUS
 62
     0
100
AcDbMText
 10
0.0
 20
-0.1249507489
 30
0.0
 40
0.065
 41
0.0
 71
     1
 72
     1
  1
FRACTIONAL
  7
SLDTEXTSTYLE0
  0
MTEXT
  5
B4
330
AE
100
AcDbEntity
  8
0
  6
CONTINUOUS
 62
     0
100
AcDbMText
 10
0.5175850875
 20
-0.1249507489
 30
0.0
 40
0.065
 41
0.0
 71
     1
 72
     1
  1
%%p
  7
SLDTEXTSTYLE0
  0
MTEXT
  5
B5
330
AE
100
AcDbEntity
  8
0
  6
CONTINUOUS
 62
     0
100
AcDbMText
 10
0.0
 20
-0.2293208248
 30
0.0
 40
0.065
 41
0.0
 71
     1
 72
     1
  1
ANGULAR: MACH
  7
SLDTEXTSTYLE0
  0
MTEXT
  5
B6
330
AE
100
AcDbEntity
  8
0
  6
CONTINUOUS
 62
     0
100
AcDbMText
 10
0.7233732769
 20
-0.2293208248
 30
0.0
 40
0.065
 41
0.0
 71
     1
 72
     1
  1
%%p
  7
SLDTEXTSTYLE0
  0
MTEXT
  5
B7
330
AE
100
AcDbEntity
  8
0
  6
CONTINUOUS
 62
     0
100
AcDbMText
 10
0.7852857683
 20
-0.2293208248
 30
0.0
 40
0.065
 41
0.0
 71
     1
 72
     1
  1
     BEND 
  7
SLDTEXTSTYLE0
  0
MTEXT
  5
B8
330
AE
100
AcDbEntity
  8
0
  6
CONTINUOUS
 62
     0
100
AcDbMText
 10
1.14784136
 20
-0.2293208248
 30
0.0
 40
0.065
 41
0.0
 71
     1
 72
     1
  1
%%p
  7
SLDTEXTSTYLE0
  0
MTEXT
  5
B9
330
AE
100
AcDbEntity
  8
0
  6
CONTINUOUS
 62
     0
100
AcDbMText
 10
0.0
 20
-0.3336909008
 30
0.0
 40
0.065
 41
0.0
 71
     1
 72
     1
  1
TWO PLACE DECIMAL    
  7
SLDTEXTSTYLE0
  0
MTEXT
  5
BA
330
AE
100
AcDbEntity
  8
0
  6
CONTINUOUS
 62
     0
100
AcDbMText
 10
0.9794349188
 20
-0.3336909008
 30
0.0
 40
0.065
 41
0.0
 71
     1
 72
     1
  1
%%p
  7
SLDTEXTSTYLE0
  0
MTEXT
  5
BB
330
AE
100
AcDbEntity
  8
0
  6
CONTINUOUS
 62
     0
100
AcDbMText
 10
0.0
 20
-0.4380609768
 30
0.0
 40
0.065
 41
0.0
 71
     1
 72
     1
  1
THREE PLACE DECIMAL  
  7
SLDTEXTSTYLE0
  0
MTEXT
  5
BC
330
AE
100
AcDbEntity
  8
0
  6
CONTINUOUS
 62
     0
100
AcDbMText
 10
0.9738038639
 20
-0.4380609768
 30
0.0
 40
0.065
 41
0.0
 71
     1
 72
     1
  1
%%p
  7
SLDTEXTSTYLE0
  0
ENDBLK
  5
B0
330
AE
100
AcDbEntity
  8
0
100
AcDbBlockEnd
  0
BLOCK
  5
C3
330
C2
100
AcDbEntity
  8
0
100
AcDbBlockBegin
  2
SW_NOTE_2
 70
     0
 10
0.0
 20
0.0
 30
0.0
  3
SW_NOTE_2
  1

  0
MTEXT
  5
C5
330
C2
100
AcDbEntity
  8
0
  6
CONTINUOUS
 62
     0
100
AcDbMText
 10
0.0
 20
0.0773440644
 30
0.0
 40
0.06
 41
0.0
 71
     1
 72
     1
  1
THE INFORMATION CONTAINED IN THIS
  7
SLDTEXTSTYLE0
  0
MTEXT
  5
C6
330
C2
100
AcDbEntity
  8
0
  6
CONTINUOUS
 62
     0
100
AcDbMText
 10
0.0
 20
-0.0220260102
 30
0.0
 40
0.06
 41
0.0
 71
     1
 72
     1
  1
DRAWING IS THE SOLE PROPERTY OF
  7
SLDTEXTSTYLE0
  0
MTEXT
  5
C7
330
C2
100
AcDbEntity
  8
0
  6
CONTINUOUS
 62
     0
100
AcDbMText
 10
0.0
 20
-0.1213960848
 30
0.0
 40
0.06
 41
0.0
 71
     1
 72
     1
  1
Candy Controls.  ANY 
  7
SLDTEXTSTYLE0
  0
MTEXT
  5
C8
330
C2
100
AcDbEntity
  8
0
  6
CONTINUOUS
 62
     0
100
AcDbMText
 10
0.0
 20
-0.2207661593
 30
0.0
 40
0.06
 41
0.0
 71
     1
 72
     1
  1
REPRODUCTION IN PART OR AS A WHOLE
  7
SLDTEXTSTYLE0
  0
MTEXT
  5
C9
330
C2
100
AcDbEntity
  8
0
  6
CONTINUOUS
 62
     0
100
AcDbMText
 10
0.0
 20
-0.3201362339
 30
0.0
 40
0.06
 41
0.0
 71
     1
 72
     1
  1
WITHOUT THE WRITTEN PERMISSION OF
  7
SLDTEXTSTYLE0
  0
MTEXT
  5
CA
330
C2
100
AcDbEntity
  8
0
  6
CONTINUOUS
 62
     0
100
AcDbMText
 10
0.0
 20
-0.4195063085
 30
0.0
 40
0.06
 41
0.0
 71
     1
 72
     1
  1
Candy Controls IS 
  7
SLDTEXTSTYLE0
  0
MTEXT
  5
CB
330
C2
100
AcDbEntity
  8
0
  6
CONTINUOUS
 62
     0
100
AcDbMText
 10
0.0
 20
-0.518876383
 30
0.0
 40
0.06
 41
0.0
 71
     1
 72
     1
  1
PROHIBITED.
  7
SLDTEXTSTYLE0
  0
ENDBLK
  5
C4
330
C2
100
AcDbEntity
  8
0
100
AcDbBlockEnd
  0
ENDSEC
  0
SECTION
  2
ENTITIES
  0
LINE
  5
41
330
1F
100
AcDbEntity
  8
0
  6
CONTINUOUS
 62
     7
100
AcDbLine
 10
0.329927
 20
8.1920731707
 30
0.0
 11
10.629927
 21
8.1920731707
 31
0.0
  0
LINE
  5
42
330
1F
100
AcDbEntity
  8
0
  6
CONTINUOUS
 62
     7
100
AcDbLine
 10
0.329927
 20
8.1920731707
 30
0.0
 11
0.329927
 21
0.3920731707
 31
0.0
  0
LINE
  5
43
330
1F
100
AcDbEntity
  8
0
  6
CONTINUOUS
 62
     7
100
AcDbLine
 10
10.629927
 20
0.3920731707
 30
0.0
 11
0.329927
 21
0.3920731707
 31
0.0
  0
LINE
  5
44
330
1F
100
AcDbEntity
  8
0
  6
CONTINUOUS
 62
     7
100
AcDbLine
 10
10.629927
 20
0.3920731707
 30
0.0
 11
10.629927
 21
8.1920731707
 31
0.0
  0
LINE
  5
45
330
1F
100
AcDbEntity
  8
0
  6
CONTINUOUS
 62
     7
100
AcDbLine
 10
4.7981841288
 20
0.3920731707
 30
0.0
 11
4.7981841288
 21
2.3564211366
 31
0.0
  0
LINE
  5
46
330
1F
100
AcDbEntity
  8
0
  6
CONTINUOUS
 62
     7
100
AcDbLine
 10
2.8210345579
 20
2.3564211366
 30
0.0
 11
10.629927
 21
2.3564211366
 31
0.0
  0
LINE
  5
47
330
1F
100
AcDbEntity
  8
0
  6
CONTINUOUS
 62
     7
100
AcDbLine
 10
6.1796352514
 20
2.3564211366
 30
0.0
 11
6.1796352514
 21
0.3920731707
 31
0.0
  0
LINE
  5
48
330
1F
100
AcDbEntity
  8
0
  6
CONTINUOUS
 62
     7
100
AcDbLine
 10
7.8712070044
 20
2.3564211366
 30
0.0
 11
7.8712070044
 21
0.3920731707
 31
0.0
  0
LINE
  5
49
330
1F
100
AcDbEntity
  8
0
  6
CONTINUOUS
 62
     7
100
AcDbLine
 10
7.8712070044
 20
0.6049590101
 30
0.0
 11
10.629927
 21
0.6049590101
 31
0.0
  0
LINE
  5
4A
330
1F
100
AcDbEntity
  8
0
  6
CONTINUOUS
 62
     7
100
AcDbLine
 10
7.8712070044
 20
1.1119362457
 30
0.0
 11
10.629927
 21
1.1119362457
 31
0.0
  0
LINE
  5
4B
330
1F
100
AcDbEntity
  8
0
  6
CONTINUOUS
 62
     7
100
AcDbLine
 10
7.8712070044
 20
1.9892703708
 30
0.0
 11
10.629927
 21
1.9892703708
 31
0.0
  0
LINE
  5
4C
330
1F
100
AcDbEntity
  8
0
  6
CONTINUOUS
 62
     7
100
AcDbLine
 10
8.266751752
 20
1.1119362457
 30
0.0
 11
8.266751752
 21
0.6049590101
 31
0.0
  0
LINE
  5
4D
330
1F
100
AcDbEntity
  8
0
  6
CONTINUOUS
 62
     7
100
AcDbLine
 10
8.6943435176
 20
0.6049590101
 30
0.0
 11
8.6943435176
 21
0.3920731707
 31
0.0
  0
LINE
  5
4E
330
1F
100
AcDbEntity
  8
0
  6
CONTINUOUS
 62
     7
100
AcDbLine
 10
10.0579917045
 20
1.1119362457
 30
0.0
 11
10.0579917045
 21
0.6049590101
 31
0.0
  0
LINE
  5
4F
330
1F
100
AcDbEntity
  8
0
  6
CONTINUOUS
 62
     7
100
AcDbLine
 10
9.6662556631
 20
0.6049590101
 30
0.0
 11
9.6662556631
 21
0.3920731707
 31
0.0
  0
LINE
  5
50
330
1F
100
AcDbEntity
  8
0
  6
CONTINUOUS
 62
     7
100
AcDbLine
 10
2.8210345579
 20
0.5883479999
 30
0.0
 11
6.1796352514
 21
0.5883479999
 31
0.0
  0
LINE
  5
51
330
1F
100
AcDbEntity
  8
0
  6
CONTINUOUS
 62
     7
100
AcDbLine
 10
6.1796352514
 20
1.7939211366
 30
0.0
 11
7.8712070044
 21
1.7939211366
 31
0.0
  0
LINE
  5
52
330
1F
100
AcDbEntity
  8
0
  6
CONTINUOUS
 62
     7
100
AcDbLine
 10
6.1796352514
 20
1.9814211366
 30
0.0
 11
7.8712070044
 21
1.9814211366
 31
0.0
  0
LINE
  5
53
330
1F
100
AcDbEntity
  8
0
  6
CONTINUOUS
 62
     7
100
AcDbLine
 10
6.1796352514
 20
2.1689211366
 30
0.0
 11
7.8712070044
 21
2.1689211366
 31
0.0
  0
LINE
  5
54
330
1F
100
AcDbEntity
  8
0
  6
CONTINUOUS
 62
     7
100
AcDbLine
 10
7.8712070044
 20
1.2314211366
 30
0.0
 11
6.1796352514
 21
1.2314211366
 31
0.0
  0
LINE
  5
55
330
1F
100
AcDbEntity
  8
0
  6
CONTINUOUS
 62
     7
100
AcDbLine
 10
7.3921580388
 20
2.3564211366
 30
0.0
 11
7.3921580388
 21
1.2314211366
 31
0.0
  0
LINE
  5
56
330
1F
100
AcDbEntity
  8
0
  6
CONTINUOUS
 62
     7
100
AcDbLine
 10
6.9236308342
 20
2.3564211366
 30
0.0
 11
6.9236308342
 21
1.2314211366
 31
0.0
  0
LINE
  5
57
330
1F
100
AcDbEntity
  8
0
  6
CONTINUOUS
 62
     7
100
AcDbLine
 10
4.7981841288
 20
0.8557965305
 30
0.0
 11
6.1796352514
 21
0.8557965305
 31
0.0
  0
LINE
  5
58
330
1F
100
AcDbEntity
  8
0
  6
CONTINUOUS
 62
     7
100
AcDbLine
 10
4.7981841288
 20
1.1257965305
 30
0.0
 11
6.1796352514
 21
1.1257965305
 31
0.0
  0
LINE
  5
59
330
1F
100
AcDbEntity
  8
0
  6
CONTINUOUS
 62
     7
100
AcDbLine
 10
2.8210345579
 20
0.3920731707
 30
0.0
 11
2.8210345579
 21
2.3564211366
 31
0.0
  0
LINE
  5
5A
330
1F
100
AcDbEntity
  8
0
  6
CONTINUOUS
 62
     7
100
AcDbLine
 10
2.8210345579
 20
1.1064211366
 30
0.0
 11
4.7981841288
 21
1.1064211366
 31
0.0
  0
LINE
  5
5B
330
1F
100
AcDbEntity
  8
0
  6
CONTINUOUS
 62
     7
100
AcDbLine
 10
2.8210345579
 20
1.3564211366
 30
0.0
 11
4.7981841288
 21
1.3564211366
 31
0.0
  0
LINE
  5
5C
330
1F
100
AcDbEntity
  8
0
  6
CONTINUOUS
 62
     7
100
AcDbLine
 10
2.8210345579
 20
1.6064211366
 30
0.0
 11
4.7981841288
 21
1.6064211366
 31
0.0
  0
LINE
  5
5D
330
1F
100
AcDbEntity
  8
0
  6
CONTINUOUS
 62
     7
100
AcDbLine
 10
2.8210345579
 20
1.8564211366
 30
0.0
 11
4.7981841288
 21
1.8564211366
 31
0.0
  0
LINE
  5
5E
330
1F
100
AcDbEntity
  8
0
  6
CONTINUOUS
 62
     7
100
AcDbLine
 10
3.8190146875
 20
2.3564211366
 30
0.0
 11
3.8190146875
 21
0.5883479999
 31
0.0
  0
LINE
  5
5F
330
1F
100
AcDbEntity
  8
0
  6
CONTINUOUS
 62
     7
100
AcDbLine
 10
6.1796352514
 20
2.2020813496
 30
0.0
 11
4.7981841288
 21
2.2020813496
 31
0.0
  0
LINE
  5
60
330
1F
100
AcDbEntity
  8
0
  6
CONTINUOUS
 62
     7
100
AcDbLine
 10
7.8712070044
 20
1.6064211366
 30
0.0
 11
6.1796352514
 21
1.6064211366
 31
0.0
  0
LINE
  5
61
330
1F
100
AcDbEntity
  8
0
  6
CONTINUOUS
 62
     7
100
AcDbLine
 10
7.8712070044
 20
1.4189211366
 30
0.0
 11
6.1796352514
 21
1.4189211366
 31
0.0
  0
LINE
  5
62
330
1F
100
AcDbEntity
  8
0
  6
CONTINUOUS
 62
     7
100
AcDbLine
 10
2.8210345579
 20
2.1064211366
 30
0.0
 11
4.7981841288
 21
2.1064211366
 31
0.0
  0
LINE
  5
63
330
1F
100
AcDbEntity
  8
0
  6
CONTINUOUS
 62
     7
100
AcDbLine
 10
4.7981841288
 20
1.3957965305
 30
0.0
 11
6.1796352514
 21
1.3957965305
 31
0.0
  0
LINE
  5
64
330
1F
100
AcDbEntity
  8
0
  6
CONTINUOUS
 62
     7
100
AcDbLine
 10
2.8210345579
 20
0.8564211366
 30
0.0
 11
4.7981841288
 21
0.8564211366
 31
0.0
  0
LINE
  5
65
330
1F
100
AcDbEntity
  8
0
  6
CONTINUOUS
 62
     7
100
AcDbLine
 10
1.1838252943
 20
0.3920731707
 30
0.0
 11
1.1838252943
 21
1.3064211366
 31
0.0
  0
LINE
  5
66
330
1F
100
AcDbEntity
  8
0
  6
CONTINUOUS
 62
     7
100
AcDbLine
 10
2.8210345579
 20
1.3064211366
 30
0.0
 11
1.1838252943
 21
1.3064211366
 31
0.0
  0
LINE
  5
67
330
1F
100
AcDbEntity
  8
0
  6
CONTINUOUS
 62
     7
100
AcDbLine
 10
8.660927
 20
0.3920731707
 30
0.0
 11
8.660927
 21
0.3072739649
 31
0.0
  0
LINE
  5
68
330
1F
100
AcDbEntity
  8
0
  6
CONTINUOUS
 62
     7
100
AcDbLine
 10
6.692177
 20
0.3920731707
 30
0.0
 11
6.692177
 21
0.3072739649
 31
0.0
  0
LINE
  5
69
330
1F
100
AcDbEntity
  8
0
  6
CONTINUOUS
 62
     7
100
AcDbLine
 10
4.723427
 20
0.3920731707
 30
0.0
 11
4.723427
 21
0.3072739649
 31
0.0
  0
LINE
  5
6A
330
1F
100
AcDbEntity
  8
0
  6
CONTINUOUS
 62
     7
100
AcDbLine
 10
2.754677
 20
0.3920731707
 30
0.0
 11
2.754677
 21
0.3072739649
 31
0.0
  0
LINE
  5
6B
330
1F
100
AcDbEntity
  8
0
  6
CONTINUOUS
 62
     7
100
AcDbLine
 10
2.754677
 20
0.3920731707
 30
0.0
 11
2.7672319738
 21
0.3575
 31
0.0
  0
LINE
  5
6C
330
1F
100
AcDbEntity
  8
0
  6
CONTINUOUS
 62
     7
100
AcDbLine
 10
2.7672319738
 20
0.3575
 30
0.0
 11
2.7414258825
 21
0.3575
 31
0.0
  0
LINE
  5
6D
330
1F
100
AcDbEntity
  8
0
  6
CONTINUOUS
 62
     7
100
AcDbLine
 10
2.7414258825
 20
0.3575
 30
0.0
 11
2.754677
 21
0.3920731707
 31
0.0
  0
MTEXT
  5
91
330
1F
100
AcDbEntity
  8
0
  6
CONTINUOUS
 62
     7
100
AcDbMText
 10
4.9775846961
 20
0.5178452352
 30
0.0
 40
0.0625
 41
0.0
 71
     1
 72
     1
  1
DO NOT SCALE DRAWING
  7
SLDTEXTSTYLE0
  0
MTEXT
  5
92
330
1F
100
AcDbEntity
  8
0
  6
CONTINUOUS
 62
     7
100
AcDbMText
 10
8.8632491001
 20
0.9417064595
 30
0.0
 40
0.125
 41
0.0
 71
     1
 72
     1
  1
CL12-13
  7
SLDTEXTSTYLE0
  0
MTEXT
  5
94
330
1F
100
AcDbEntity
  8
0
  6
CONTINUOUS
 62
     7
100
AcDbMText
 10
9.7571278483
 20
0.5524239532
 30
0.0
 40
0.1
 41
0.0
 71
     1
 72
     1
  1
SHEET 1 OF 1
  7
SLDTEXTSTYLE1
  0
MTEXT
  5
95
330
1F
100
AcDbEntity
  8
0
  6
CONTINUOUS
 62
     7
100
AcDbMText
 10
4.8448077858
 20
2.3132954224
 30
0.0
 40
0.07
 41
0.0
 71
     1
 72
     1
  1
UNLESS OTHERWISE SPECIFIED:
  7
SLDTEXTSTYLE0
  0
MTEXT
  5
96
330
1F
100
AcDbEntity
  8
0
  6
CONTINUOUS
 62
     7
100
AcDbMText
 10
7.9586139647
 20
0.5520987879
 30
0.0
 40
0.1
 41
0.0
 71
     1
 72
     1
  1
SCALE: 2:1
  7
SLDTEXTSTYLE0
  0
MTEXT
  5
97
330
1F
100
AcDbEntity
  8
0
  6
CONTINUOUS
 62
     7
100
AcDbMText
 10
8.7023691647
 20
0.5486763345
 30
0.0
 40
0.1
 41
0.0
 71
     1
 72
     1
  1
WEIGHT: 
  7
SLDTEXTSTYLE0
  0
MTEXT
  5
98
330
1F
100
AcDbEntity
  8
0
  6
CONTINUOUS
 62
     7
100
AcDbMText
 10
10.2277580983
 20
1.081966299
 30
0.0
 40
0.1
 41
0.0
 71
     1
 72
     1
  1
REV
  7
SLDTEXTSTYLE0
  0
MTEXT
  5
9A
330
1F
100
AcDbEntity
  8
0
  6
CONTINUOUS
 62
     7
100
AcDbMText
 10
8.2984570898
 20
1.0858725293
 30
0.0
 40
0.1
 41
0.0
 71
     1
 72
     1
  1
DWG.  NO.
  7
SLDTEXTSTYLE2
  0
MTEXT
  5
9B
330
1F
100
AcDbEntity
  8
0
  6
CONTINUOUS
 62
     7
100
AcDbMText
 10
7.9598482632
 20
0.9442140768
 30
0.0
 40
0.25
 41
0.0
 71
     1
 72
     1
  1
A
  7
SLDTEXTSTYLE0
  0
MTEXT
  5
9C
330
1F
100
AcDbEntity
  8
0
  6
CONTINUOUS
 62
     7
100
AcDbMText
 10
7.9519581822
 20
1.0872713483
 30
0.0
 40
0.1
 41
0.0
 71
     1
 72
     1
  1
SIZE
  7
SLDTEXTSTYLE0
  0
MTEXT
  5
9D
330
1F
100
AcDbEntity
  8
0
  6
CONTINUOUS
 62
     7
100
AcDbMText
 10
7.9170704177
 20
1.9547881128
 30
0.0
 40
0.1
 41
0.0
 71
     1
 72
     1
  1
TITLE:
  7
SLDTEXTSTYLE0
  0
MTEXT
  5
9E
330
1F
100
AcDbEntity
  8
0
  6
CONTINUOUS
 62
     7
100
AcDbMText
 10
7.0363774929
 20
2.2906161274
 30
0.0
 40
0.065
 41
0.0
 71
     1
 72
     1
  1
NAME
  7
SLDTEXTSTYLE0
  0
MTEXT
  5
9F
330
1F
100
AcDbEntity
  8
0
  6
CONTINUOUS
 62
     7
100
AcDbMText
 10
7.5281510634
 20
2.2888799118
 30
0.0
 40
0.065
 41
0.0
 71
     1
 72
     1
  1
DATE
  7
SLDTEXTSTYLE0
  0
MTEXT
  5
A0
330
1F
100
AcDbEntity
  8
0
  6
CONTINUOUS
 62
     7
100
AcDbMText
 10
6.2277147029
 20
1.1876913145
 30
0.0
 40
0.065
 41
0.0
 71
     1
 72
     1
  1
COMMENTS:
  7
SLDTEXTSTYLE0
  0
MTEXT
  5
A1
330
1F
100
AcDbEntity
  8
0
  6
CONTINUOUS
 62
     7
100
AcDbMText
 10
6.2268411461
 20
1.3536101679
 30
0.0
 40
0.065
 41
0.0
 71
     1
 72
     1
  1
Q.A.
  7
SLDTEXTSTYLE0
  0
MTEXT
  5
A2
330
1F
100
AcDbEntity
  8
0
  6
CONTINUOUS
 62
     7
100
AcDbMText
 10
6.2284654509
 20
1.5395328424
 30
0.0
 40
0.065
 41
0.0
 71
     1
 72
     1
  1
MFG APPR.
  7
SLDTEXTSTYLE0
  0
MTEXT
  5
A3
330
1F
100
AcDbEntity
  8
0
  6
CONTINUOUS
 62
     7
100
AcDbMText
 10
6.2235171344
 20
1.7267501785
 30
0.0
 40
0.065
 41
0.0
 71
     1
 72
     1
  1
ENG APPR.
  7
SLDTEXTSTYLE0
  0
MTEXT
  5
A4
330
1F
100
AcDbEntity
  8
0
  6
CONTINUOUS
 62
     7
100
AcDbMText
 10
6.2264103951
 20
1.9092699088
 30
0.0
 40
0.065
 41
0.0
 71
     1
 72
     1
  1
CHECKED
  7
SLDTEXTSTYLE0
  0
MTEXT
  5
A5
330
1F
100
AcDbEntity
  8
0
  6
CONTINUOUS
 62
     7
100
AcDbMText
 10
6.2242794356
 20
2.1016301232
 30
0.0
 40
0.065
 41
0.0
 71
     1
 72
     1
  1
DRAWN
  7
SLDTEXTSTYLE0
  0
MTEXT
  5
A6
330
1F
100
AcDbEntity
  8
0
  6
CONTINUOUS
 62
     7
100
AcDbMText
 10
4.8208600979
 20
0.834523235
 30
0.0
 40
0.06
 41
0.0
 71
     1
 72
     1
  1
FINISH
  7
SLDTEXTSTYLE0
  0
MTEXT
  5
A7
330
1F
100
AcDbEntity
  8
0
  6
CONTINUOUS
 62
     7
100
AcDbMText
 10
4.8181240648
 20
1.1028217587
 30
0.0
 40
0.06
 41
0.0
 71
     1
 72
     1
  1
MATERIAL
  7
SLDTEXTSTYLE0
  0
INSERT
  5
AD
330
1F
100
AcDbEntity
  8
0
  6
CONTINUOUS
 62
     7
100
AcDbBlockReference
  2
SW_NOTE_0
 10
4.8231926633
 20
1.2646542947
 30
0.0
  0
INSERT
  5
BD
330
1F
100
AcDbEntity
  8
0
  6
CONTINUOUS
 62
     7
100
AcDbBlockReference
  2
SW_NOTE_1
 10
4.8353339353
 20
2.0049168724
 30
0.0
  0
MTEXT
  5
BE
330
1F
100
AcDbEntity
  8
0
  6
CONTINUOUS
 62
     7
100
AcDbMText
 10
3.5531400086
 20
0.5200091997
 30
0.0
 40
0.0625
 41
0.0
 71
     1
 72
     1
  1
APPLICATION
  7
SLDTEXTSTYLE0
  0
MTEXT
  5
BF
330
1F
100
AcDbEntity
  8
0
  6
CONTINUOUS
 62
     7
100
AcDbMText
 10
4.1005607758
 20
0.7502454275
 30
0.0
 40
0.0625
 41
0.0
 71
     1
 72
     1
  1
USED ON
  7
SLDTEXTSTYLE0
  0
MTEXT
  5
C0
330
1F
100
AcDbEntity
  8
0
  6
CONTINUOUS
 62
     7
100
AcDbMText
 10
3.1040019536
 20
0.7492094783
 30
0.0
 40
0.0625
 41
0.0
 71
     1
 72
     1
  1
NEXT ASSY
  7
SLDTEXTSTYLE0
  0
MTEXT
  5
C1
330
1F
100
AcDbEntity
  8
0
  6
CONTINUOUS
 62
     7
100
AcDbMText
 10
1.3712489489
 20
1.2496672684
 30
0.0
 40
0.06
 41
0.0
 71
     1
 72
     1
  1
PROPRIETARY AND CONFIDENTIAL
  7
SLDTEXTSTYLE0
  0
INSERT
  5
CC
330
1F
100
AcDbEntity
  8
0
  6
CONTINUOUS
 62
     7
100
AcDbBlockReference
  2
SW_NOTE_2
 10
1.2226209074
 20
1.0313492921
 30
0.0
  0
MTEXT
  5
CD
330
1F
100
AcDbEntity
  8
0
  6
CONTINUOUS
 62
     7
100
AcDbMText
 10
1.7387909509
 20
0.3105864247
 30
0.0
 40
0.09375
 41
0.0
 71
     1
 72
     1
  1
5
  7
SLDTEXTSTYLE0
  0
MTEXT
  5
CE
330
1F
100
AcDbEntity
  8
0
  6
CONTINUOUS
 62
     7
100
AcDbMText
 10
3.723800327
 20
0.3137237518
 30
0.0
 40
0.09375
 41
0.0
 71
     1
 72
     1
  1
4
  7
SLDTEXTSTYLE0
  0
MTEXT
  5
CF
330
1F
100
AcDbEntity
  8
0
  6
CONTINUOUS
 62
     7
100
AcDbMText
 10
5.6324457277
 20
0.3116191842
 30
0.0
 40
0.09375
 41
0.0
 71
     1
 72
     1
  1
3
  7
SLDTEXTSTYLE0
  0
MTEXT
  5
D0
330
1F
100
AcDbEntity
  8
0
  6
CONTINUOUS
 62
     7
100
AcDbMText
 10
7.6059721724
 20
0.3124391351
 30
0.0
 40
0.09375
 41
0.0
 71
     1
 72
     1
  1
2
  7
SLDTEXTSTYLE0
  0
MTEXT
  5
D1
330
1F
100
AcDbEntity
  8
0
  6
CONTINUOUS
 62
     7
100
AcDbMText
 10
9.6619921328
 20
0.301372012
 30
0.0
 40
0.09375
 41
0.0
 71
     1
 72
     1
  1
1
  7
SLDTEXTSTYLE0
  0
LINE
  5
D2
330
1F
100
AcDbEntity
  8
0
  6
CONTINUOUS
 62
     7
100
AcDbLine
 10
4.1627778357
 20
3.2429302549
 30
0.0
 11
4.1927778357
 21
3.2729302549
 31
0.0
  0
LINE
  5
D3
330
1F
100
AcDbEntity
  8
0
  6
CONTINUOUS
 62
     7
100
AcDbLine
 10
4.1927778357
 20
4.2365523021
 30
0.0
 11
4.1627778357
 21
4.2665523021
 31
0.0
  0
LINE
  5
D4
330
1F
100
AcDbEntity
  8
0
  6
CONTINUOUS
 62
     7
100
AcDbLine
 10
3.581360019
 20
3.2429302549
 30
0.0
 11
4.1627778357
 21
3.2429302549
 31
0.0
  0
LINE
  5
D5
330
1F
100
AcDbEntity
  8
0
  6
CONTINUOUS
 62
     7
100
AcDbLine
 10
3.1446904494
 20
3.2429302549
 30
0.0
 11
3.5085817574
 21
3.2429302549
 31
0.0
  0
LINE
  5
D6
330
1F
100
AcDbEntity
  8
0
  6
CONTINUOUS
 62
     7
100
AcDbLine
 10
2.4904943711
 20
3.2429302549
 30
0.0
 11
3.0719121878
 21
3.2429302549
 31
0.0
  0
LINE
  5
D7
330
1F
100
AcDbEntity
  8
0
  6
CONTINUOUS
 62
     7
100
AcDbLine
 10
2.5713483474
 20
4.2665523021
 30
0.0
 11
2.4904943711
 21
4.2665523021
 31
0.0
  0
LINE
  5
D8
330
1F
100
AcDbEntity
  8
0
  6
CONTINUOUS
 62
     7
100
AcDbLine
 10
3.0719121878
 20
4.2665523021
 30
0.0
 11
2.8535761472
 21
4.2665523021
 31
0.0
  0
LINE
  5
D9
330
1F
100
AcDbEntity
  8
0
  6
CONTINUOUS
 62
     7
100
AcDbLine
 10
3.5085817574
 20
4.2665523021
 30
0.0
 11
3.1446904494
 21
4.2665523021
 31
0.0
  0
LINE
  5
DA
330
1F
100
AcDbEntity
  8
0
  6
CONTINUOUS
 62
     7
100
AcDbLine
 10
3.799694804
 20
4.2665523021
 30
0.0
 11
3.581360019
 21
4.2665523021
 31
0.0
  0
LINE
  5
DB
330
1F
100
AcDbEntity
  8
0
  6
CONTINUOUS
 62
     7
100
AcDbLine
 10
4.1627778357
 20
4.2665523021
 30
0.0
 11
4.0819226039
 21
4.2665523021
 31
0.0
  0
LINE
  5
DC
330
1F
100
AcDbEntity
  8
0
  6
CONTINUOUS
 62
     7
100
AcDbLine
 10
2.4904943711
 20
4.2665523021
 30
0.0
 11
2.4604943711
 21
4.2365523021
 31
0.0
  0
LINE
  5
DD
330
1F
100
AcDbEntity
  8
0
  6
CONTINUOUS
 62
     7
100
AcDbLine
 10
2.4604943711
 20
3.2729302549
 30
0.0
 11
2.4904943711
 21
3.2429302549
 31
0.0
  0
LINE
  5
DE
330
1F
100
AcDbEntity
  8
0
  6
CONTINUOUS
 62
     7
100
AcDbLine
 10
3.1446904494
 20
4.0697019084
 30
0.0
 11
3.0719121878
 21
4.0697019084
 31
0.0
  0
LINE
  5
DF
330
1F
100
AcDbEntity
  8
0
  6
CONTINUOUS
 62
     7
100
AcDbLine
 10
3.0719121878
 20
3.4397806486
 30
0.0
 11
3.1446904494
 21
3.4397806486
 31
0.0
  0
LINE
  5
E0
330
1F
100
AcDbEntity
  8
0
  6
CONTINUOUS
 62
     7
100
AcDbLine
 10
3.581360019
 20
4.0697019084
 30
0.0
 11
3.5085817574
 21
4.0697019084
 31
0.0
  0
LINE
  5
E1
330
1F
100
AcDbEntity
  8
0
  6
CONTINUOUS
 62
     7
100
AcDbLine
 10
3.5085817574
 20
3.4397806486
 30
0.0
 11
3.581360019
 21
3.4397806486
 31
0.0
  0
LINE
  5
E2
330
1F
100
AcDbEntity
  8
0
  6
CONTINUOUS
 62
     7
100
AcDbLine
 10
4.047829989
 20
4.2576418811
 30
0.0
 11
4.038919568
 21
4.2665523021
 31
0.0
  0
LINE
  5
E3
330
1F
100
AcDbEntity
  8
0
  6
CONTINUOUS
 62
     7
100
AcDbLine
 10
3.8426990955
 20
4.2665523021
 30
0.0
 11
3.8337895645
 21
4.2576427711
 31
0.0
  0
LINE
  5
E4
330
1F
100
AcDbEntity
  8
0
  6
CONTINUOUS
 62
     7
100
AcDbLine
 10
2.8194835323
 20
4.2576418811
 30
0.0
 11
2.8105731113
 21
4.2665523021
 31
0.0
  0
LINE
  5
E5
330
1F
100
AcDbEntity
  8
0
  6
CONTINUOUS
 62
     7
100
AcDbLine
 10
2.6143526388
 20
4.2665523021
 30
0.0
 11
2.6054431078
 21
4.2576427711
 31
0.0
  0
LINE
  5
E6
330
1F
100
AcDbEntity
  8
0
  6
CONTINUOUS
 62
     7
100
AcDbLine
 10
4.1927778357
 20
4.2365523021
 30
0.0
 11
4.1927778357
 21
3.2729302549
 31
0.0
  0
LINE
  5
E7
330
1F
100
AcDbEntity
  8
0
  6
CONTINUOUS
 62
     7
100
AcDbLine
 10
4.1627778357
 20
3.2429302549
 30
0.0
 11
4.1627778357
 21
4.2665523021
 31
0.0
  0
LINE
  5
E8
330
1F
100
AcDbEntity
  8
0
  6
CONTINUOUS
 62
     7
100
AcDbLine
 10
3.4358034958
 20
3.2490234605
 30
0.0
 11
3.4358034958
 21
4.2604590966
 31
0.0
  0
LINE
  5
E9
330
1F
100
AcDbEntity
  8
0
  6
CONTINUOUS
 62
     7
100
AcDbLine
 10
3.3630252342
 20
4.2604590966
 30
0.0
 11
3.4358034958
 21
4.2604590966
 31
0.0
  0
LINE
  5
EA
330
1F
100
AcDbEntity
  8
0
  6
CONTINUOUS
 62
     7
100
AcDbLine
 10
3.3630252342
 20
4.2604590966
 30
0.0
 11
3.3630252342
 21
3.2490234605
 31
0.0
  0
LINE
  5
EB
330
1F
100
AcDbEntity
  8
0
  6
CONTINUOUS
 62
     7
100
AcDbLine
 10
3.4358034958
 20
3.2490234605
 30
0.0
 11
3.3630252342
 21
3.2490234605
 31
0.0
  0
LINE
  5
EC
330
1F
100
AcDbEntity
  8
0
  6
CONTINUOUS
 62
     7
100
AcDbLine
 10
2.9263556646
 20
3.2490234605
 30
0.0
 11
2.9991339262
 21
3.2490234605
 31
0.0
  0
LINE
  5
ED
330
1F
100
AcDbEntity
  8
0
  6
CONTINUOUS
 62
     7
100
AcDbLine
 10
2.9991339262
 20
4.2604590966
 30
0.0
 11
2.9263556646
 21
4.2604590966
 31
0.0
  0
LINE
  5
EE
330
1F
100
AcDbEntity
  8
0
  6
CONTINUOUS
 62
     7
100
AcDbLine
 10
2.4904943711
 20
4.2665523021
 30
0.0
 11
2.4904943711
 21
3.2429302549
 31
0.0
  0
ARC
  5
EF
330
1F
100
AcDbEntity
  8
0
  6
CONTINUOUS
 62
     7
100
AcDbCircle
 10
3.9408093641
 20
4.728339703
 30
0.0
 40
0.4828673965355018
100
AcDbArc
 50
253.0077180299
 51
286.9921181508
  0
ARC
  5
F0
330
1F
100
AcDbEntity
  8
0
  6
CONTINUOUS
 62
     7
100
AcDbCircle
 10
2.7124629074
 20
4.728339703
 30
0.0
 40
0.4828673965355504
100
AcDbArc
 50
253.0077180299
 51
286.9921181508
  0
LINE
  5
F1
330
1F
100
AcDbEntity
  8
0
  6
CONTINUOUS
 62
     7
100
AcDbLine
 10
3.2902469726
 20
3.2490234605
 30
0.0
 11
3.2902469726
 21
4.2604590966
 31
0.0
  0
LINE
  5
F2
330
1F
100
AcDbEntity
  8
0
  6
CONTINUOUS
 62
     7
100
AcDbLine
 10
3.217468711
 20
4.2604590966
 30
0.0
 11
3.2902469726
 21
4.2604590966
 31
0.0
  0
LINE
  5
F3
330
1F
100
AcDbEntity
  8
0
  6
CONTINUOUS
 62
     7
100
AcDbLine
 10
3.217468711
 20
4.2604590966
 30
0.0
 11
3.217468711
 21
3.2490234605
 31
0.0
  0
LINE
  5
F4
330
1F
100
AcDbEntity
  8
0
  6
CONTINUOUS
 62
     7
100
AcDbLine
 10
3.2902469726
 20
3.2490234605
 30
0.0
 11
3.217468711
 21
3.2490234605
 31
0.0
  0
LINE
  5
F5
330
1F
100
AcDbEntity
  8
0
  6
CONTINUOUS
 62
     7
100
AcDbLine
 10
3.6541382806
 20
4.2604590966
 30
0.0
 11
3.6541382806
 21
3.2490234605
 31
0.0
  0
LINE
  5
F6
330
1F
100
AcDbEntity
  8
0
  6
CONTINUOUS
 62
     7
100
AcDbLine
 10
3.6541382806
 20
3.2490234605
 30
0.0
 11
3.7269165422
 21
3.2490234605
 31
0.0
  0
LINE
  5
F7
330
1F
100
AcDbEntity
  8
0
  6
CONTINUOUS
 62
     7
100
AcDbLine
 10
3.7269165422
 20
3.2490234605
 30
0.0
 11
3.7269165422
 21
4.2604590966
 31
0.0
  0
LINE
  5
F8
330
1F
100
AcDbEntity
  8
0
  6
CONTINUOUS
 62
     7
100
AcDbLine
 10
3.7269165422
 20
4.2604590966
 30
0.0
 11
3.6541382806
 21
4.2604590966
 31
0.0
  0
LINE
  5
F9
330
1F
100
AcDbEntity
  8
0
  6
CONTINUOUS
 62
     7
100
AcDbLine
 10
3.0719121878
 20
3.676001121
 30
0.0
 11
3.1446904494
 21
3.676001121
 31
0.0
  0
LINE
  5
FA
330
1F
100
AcDbEntity
  8
0
  6
CONTINUOUS
 62
     7
100
AcDbLine
 10
3.0719121878
 20
3.2429302549
 30
0.0
 11
3.0719121878
 21
3.676001121
 31
0.0
  0
LINE
  5
FB
330
1F
100
AcDbEntity
  8
0
  6
CONTINUOUS
 62
     7
100
AcDbLine
 10
3.1446904494
 20
3.676001121
 30
0.0
 11
3.1446904494
 21
3.2429302549
 31
0.0
  0
LINE
  5
FC
330
1F
100
AcDbEntity
  8
0
  6
CONTINUOUS
 62
     7
100
AcDbLine
 10
3.5085817574
 20
3.676001121
 30
0.0
 11
3.581360019
 21
3.676001121
 31
0.0
  0
LINE
  5
FD
330
1F
100
AcDbEntity
  8
0
  6
CONTINUOUS
 62
     7
100
AcDbLine
 10
3.5085817574
 20
3.2429302549
 30
0.0
 11
3.5085817574
 21
3.676001121
 31
0.0
  0
LINE
  5
FE
330
1F
100
AcDbEntity
  8
0
  6
CONTINUOUS
 62
     7
100
AcDbLine
 10
3.581360019
 20
3.676001121
 30
0.0
 11
3.581360019
 21
3.2429302549
 31
0.0
  0
LINE
  5
FF
330
1F
100
AcDbEntity
  8
0
  6
CONTINUOUS
 62
     7
100
AcDbLine
 10
3.0719121878
 20
4.2665523021
 30
0.0
 11
3.0719121878
 21
3.833481436
 31
0.0
  0
LINE
  5
100
330
1F
100
AcDbEntity
  8
0
  6
CONTINUOUS
 62
     7
100
AcDbLine
 10
3.1446904494
 20
3.833481436
 30
0.0
 11
3.0719121878
 21
3.833481436
 31
0.0
  0
LINE
  5
101
330
1F
100
AcDbEntity
  8
0
  6
CONTINUOUS
 62
     7
100
AcDbLine
 10
3.1446904494
 20
3.833481436
 30
0.0
 11
3.1446904494
 21
4.2665523021
 31
0.0
  0
LINE
  5
102
330
1F
100
AcDbEntity
  8
0
  6
CONTINUOUS
 62
     7
100
AcDbLine
 10
3.5085817574
 20
4.2665523021
 30
0.0
 11
3.5085817574
 21
3.833481436
 31
0.0
  0
LINE
  5
103
330
1F
100
AcDbEntity
  8
0
  6
CONTINUOUS
 62
     7
100
AcDbLine
 10
3.581360019
 20
3.833481436
 30
0.0
 11
3.5085817574
 21
3.833481436
 31
0.0
  0
LINE
  5
104
330
1F
100
AcDbEntity
  8
0
  6
CONTINUOUS
 62
     7
100
AcDbLine
 10
3.581360019
 20
3.833481436
 30
0.0
 11
3.581360019
 21
4.2665523021
 31
0.0
  0
LINE
  5
105
330
1F
100
AcDbEntity
  8
0
  6
CONTINUOUS
 62
     7
100
AcDbLine
 10
2.9263556646
 20
4.2604590966
 30
0.0
 11
2.9263556646
 21
3.2490234605
 31
0.0
  0
LINE
  5
106
330
1F
100
AcDbEntity
  8
0
  6
CONTINUOUS
 62
     7
100
AcDbLine
 10
2.9991339262
 20
3.2490234605
 30
0.0
 11
2.9991339262
 21
4.2604590966
 31
0.0
  0
LINE
  5
107
330
1F
100
AcDbEntity
  8
0
  6
CONTINUOUS
 62
     7
100
AcDbLine
 10
2.4604943711
 20
3.2729302549
 30
0.0
 11
2.4604943711
 21
4.2365523021
 31
0.0
  0
LINE
  5
108
330
1F
100
AcDbEntity
  8
0
  6
CONTINUOUS
 62
     7
100
AcDbLine
 10
2.9991339262
 20
3.4497819599
 30
0.0
 11
2.9263556646
 21
3.4497819599
 31
0.0
  0
LINE
  5
109
330
1F
100
AcDbEntity
  8
0
  6
CONTINUOUS
 62
     7
100
AcDbLine
 10
2.9263556646
 20
4.0597005971
 30
0.0
 11
2.9991339262
 21
4.0597005971
 31
0.0
  0
LINE
  5
10A
330
1F
100
AcDbEntity
  8
0
  6
CONTINUOUS
 62
     7
100
AcDbLine
 10
3.2902469726
 20
4.0597005971
 30
0.0
 11
3.217468711
 21
4.0597005971
 31
0.0
  0
LINE
  5
10B
330
1F
100
AcDbEntity
  8
0
  6
CONTINUOUS
 62
     7
100
AcDbLine
 10
3.217468711
 20
3.4497819599
 30
0.0
 11
3.2902469726
 21
3.4497819599
 31
0.0
  0
LINE
  5
10C
330
1F
100
AcDbEntity
  8
0
  6
CONTINUOUS
 62
     7
100
AcDbLine
 10
3.7269165422
 20
3.4497819599
 30
0.0
 11
3.6541382806
 21
3.4497819599
 31
0.0
  0
LINE
  5
10D
330
1F
100
AcDbEntity
  8
0
  6
CONTINUOUS
 62
     7
100
AcDbLine
 10
3.6541382806
 20
4.0597005971
 30
0.0
 11
3.7269165422
 21
4.0597005971
 31
0.0
  0
LINE
  5
10E
330
1F
100
AcDbEntity
  8
0
  6
CONTINUOUS
 62
     7
100
AcDbLine
 10
3.4358034958
 20
4.0597005971
 30
0.0
 11
3.3630252342
 21
4.0597005971
 31
0.0
  0
LINE
  5
10F
330
1F
100
AcDbEntity
  8
0
  6
CONTINUOUS
 62
     7
100
AcDbLine
 10
3.3630252342
 20
3.4497819599
 30
0.0
 11
3.4358034958
 21
3.4497819599
 31
0.0
  0
LINE
  5
110
330
1F
100
AcDbEntity
  8
0
  6
CONTINUOUS
 62
     7
100
AcDbLine
 10
3.8426990955
 20
4.2665523021
 30
0.0
 11
4.038919568
 21
4.2665523021
 31
0.0
  0
LINE
  5
111
330
1F
100
AcDbEntity
  8
0
  6
CONTINUOUS
 62
     7
100
AcDbLine
 10
2.8105731113
 20
4.2665523021
 30
0.0
 11
2.6143526388
 21
4.2665523021
 31
0.0
  0
SPLINE
  5
112
330
1F
100
AcDbEntity
  8
0
  6
HIDDEN
 62
     7
100
AcDbSpline
210
0.0
220
0.0
230
1.0
 70
     8
 71
     3
 72
    30
 73
    26
 74
     0
 42
0.00000001
 43
0.00000001
 40
-0.1264836848391734
 40
-0.0838633196147959
 40
-0.0426489210762758
 40
0.0
 40
0.0426596310050217
 40
0.0838784842447593
 40
0.1264978582745191
 40
0.1887994881986262
 40
0.2495387339239611
 40
0.2906185775199142
 40
0.33078914119192
 40
0.3732993863250104
 40
0.4158561970235347
 40
0.45705450541557
 40
0.4997408974066994
 40
0.5424290890267491
 40
0.5836564515964718
 40
0.6262706366835079
 40
0.6686629149833653
 40
0.7087946518834587
 40
0.7498998876539251
 40
0.7909220832490091
 40
0.8310407576886847
 40
0.8735163151608266
 40
0.9161366803852041
 40
0.9573510789237242
 40
1.0
 40
1.042659631005022
 40
1.083878484244759
 40
1.126497858274519
 10
3.802521940550291
 20
3.793103947475542
 30
0.0
 10
3.798257522724521
 20
3.75473756359026
 30
0.0
 10
3.802519905798351
 20
3.716372601837389
 30
0.0
 10
3.816823780191229
 20
3.680588788157335
 30
0.0
 10
3.843517731854929
 20
3.645553491215197
 30
0.0
 10
3.884554600365183
 20
3.615375863123749
 30
0.0
 10
3.934822970573458
 20
3.606192414519211
 30
0.0
 10
3.977823849500654
 20
3.6113742765222
 30
0.0
 10
4.012505241163209
 20
3.626238685838659
 30
0.0
 10
4.041657365631669
 20
3.65029604078507
 30
0.0
 10
4.064836791564963
 20
3.680580236471809
 30
0.0
 10
4.079098321954973
 20
3.716347360755866
 30
0.0
 10
4.083360936429737
 20
3.754727336811709
 30
0.0
 10
4.079100361157866
 20
3.793117976347257
 30
0.0
 10
4.064818739757192
 20
3.828905224640992
 30
0.0
 10
4.041656945535875
 20
3.85918980380693
 30
0.0
 10
4.012523358865898
 20
3.883227087247799
 30
0.0
 10
3.977893836699107
 20
3.898077399731436
 30
0.0
 10
3.940805696339163
 20
3.902521672688548
 30
0.0
 10
3.903706122780993
 20
3.898146088662716
 30
0.0
 10
3.869086868119081
 20
3.883267792059069
 30
0.0
 10
3.83996296887164
 20
3.859186783993496
 30
0.0
 10
3.816799327540441
 20
3.828877047641684
 30
0.0
 10
3.802521940550291
 20
3.793103947475542
 30
0.0
 10
3.798257522724521
 20
3.75473756359026
 30
0.0
 10
3.802519905798351
 20
3.716372601837389
 30
0.0
  0
SPLINE
  5
113
330
1F
100
AcDbEntity
  8
0
  6
HIDDEN
 62
     7
100
AcDbSpline
210
0.0
220
0.0
230
1.0
 70
     8
 71
     3
 72
    30
 73
    26
 74
     0
 42
0.00000001
 43
0.00000001
 40
-0.1264836848391789
 40
-0.0838633196148253
 40
-0.0426489210763051
 40
0.0
 40
0.0426596310050214
 40
0.0838784842447586
 40
0.1264978582745192
 40
0.1887994881985571
 40
0.2495387339239498
 40
0.290618577519854
 40
0.3307891411918595
 40
0.3732993863250121
 40
0.4158561970235362
 40
0.457054505415572
 40
0.4997408974067015
 40
0.5424290890268098
 40
0.5836564515965321
 40
0.6262706366835209
 40
0.6686629149834216
 40
0.7087946518835152
 40
0.7498998876539255
 40
0.7909220832489818
 40
0.8310407576886574
 40
0.8735163151608211
 40
0.9161366803851747
 40
0.9573510789236949
 40
1.0
 40
1.042659631005021
 40
1.083878484244759
 40
1.126497858274519
 10
2.574175483857374
 20
3.793103947475561
 30
0.0
 10
2.569911066031609
 20
3.754737563590269
 30
0.0
 10
2.574173449105436
 20
3.716372601837388
 30
0.0
 10
2.588477323498316
 20
3.680588788157337
 30
0.0
 10
2.615171275162
 20
3.645553491215208
 30
0.0
 10
2.656208143672267
 20
3.615375863123791
 30
0.0
 10
2.706476513880507
 20
3.606192414519221
 30
0.0
 10
2.749477392807718
 20
3.611374276522155
 30
0.0
 10
2.784158784470274
 20
3.626238685838629
 30
0.0
 10
2.813310908938742
 20
3.650296040785057
 30
0.0
 10
2.836490334872051
 20
3.680580236471809
 30
0.0
 10
2.85075186526206
 20
3.716347360755866
 30
0.0
 10
2.855014479736822
 20
3.754727336811727
 30
0.0
 10
2.850753904464957
 20
3.793117976347293
 30
0.0
 10
2.836472283064292
 20
3.828905224641037
 30
0.0
 10
2.813310488842941
 20
3.859189803806951
 30
0.0
 10
2.784176902172939
 20
3.883227087247787
 30
0.0
 10
2.74954738000616
 20
3.89807739973143
 30
0.0
 10
2.712459239646241
 20
3.902521672688549
 30
0.0
 10
2.675359666088096
 20
3.898146088662712
 30
0.0
 10
2.640740411426191
 20
3.883267792059063
 30
0.0
 10
2.611616512178737
 20
3.859186783993507
 30
0.0
 10
2.588452870847521
 20
3.828877047641706
 30
0.0
 10
2.574175483857374
 20
3.793103947475561
 30
0.0
 10
2.569911066031609
 20
3.754737563590269
 30
0.0
 10
2.574173449105436
 20
3.716372601837388
 30
0.0
  0
SPLINE
  5
114
330
1F
100
AcDbEntity
  8
0
  6
HIDDEN
 62
     7
100
AcDbSpline
210
0.0
220
0.0
230
1.0
 70
     8
 71
     3
 72
    30
 73
    26
 74
     0
 42
0.00000001
 43
0.00000001
 40
0.0
 40
0.0
 40
0.0
 40
0.0
 40
0.0206268853743501
 40
0.0640476844454834
 40
0.1048676592093901
 40
0.1466626486138426
 40
0.192002743814283
 40
0.2382720662591925
 40
0.292493903627237
 40
0.3479754250594596
 40
0.3914724253719312
 40
0.4359769409495725
 40
0.470708557436614
 40
0.5064114913048906
 40
0.5411643293877416
 40
0.5768873633392658
 40
0.6247316365731203
 40
0.673914672916565
 40
0.7237262360958491
 40
0.7745057266697019
 40
0.8345593031492539
 40
0.8969361608420007
 40
0.9388563270013003
 40
0.9819507707674168
 40
1.0
 40
1.0
 40
1.0
 40
1.0
 10
4.058635635343931
 20
3.91200875634136
 30
0.0
 10
4.058691823341643
 20
3.91205085745506
 30
0.0
 10
4.058866290357959
 20
3.91218158387333
 30
0.0
 10
4.056668517834823
 20
3.910534800132826
 30
0.0
 10
4.052359155614194
 20
3.907349618809031
 30
0.0
 10
4.045961770810437
 20
3.902721615868074
 30
0.0
 10
4.037494209757012
 20
3.896803696925451
 30
0.0
 10
4.0264121427803
 20
3.88945769121202
 30
0.0
 10
4.012677592914079
 20
3.881081530855816
 30
0.0
 10
3.997329895468271
 20
3.872976378531142
 30
0.0
 10
3.981437251974874
 20
3.866247842752214
 30
0.0
 10
3.966696344173396
 20
3.861748777707305
 30
0.0
 10
3.952125605825934
 20
3.859224706982807
 30
0.0
 10
3.938440223321605
 20
3.858626659735452
 30
0.0
 10
3.924708016438879
 20
3.859859583159488
 30
0.0
 10
3.909926291063436
 20
3.863049310867345
 30
0.0
 10
3.894371080700876
 20
3.868463830207089
 30
0.0
 10
3.878701165232783
 20
3.875787825260748
 30
0.0
 10
3.864321937439978
 20
3.883816174396019
 30
0.0
 10
3.850710834328739
 20
3.892345749918364
 30
0.0
 10
3.838414597492308
 20
3.900729861470772
 30
0.0
 10
3.829660138649505
 20
3.907051096928138
 30
0.0
 10
3.824761307913481
 20
3.910675652341657
 30
0.0
 10
3.822692306797958
 20
3.912226648701302
 30
0.0
 10
3.822910949544896
 20
3.912062783233741
 30
0.0
 10
3.822975491514097
 20
3.912014411174258
 30
0.0
  0
SPLINE
  5
115
330
1F
100
AcDbEntity
  8
0
  6
HIDDEN
 62
     7
100
AcDbSpline
210
0.0
220
0.0
230
1.0
 70
     8
 71
     3
 72
    48
 73
    44
 74
     0
 42
0.00000001
 43
0.00000001
 40
0.0
 40
0.0
 40
0.0
 40
0.0
 40
0.0624999999999997
 40
0.0624999999999997
 40
0.1249999999999993
 40
0.1249999999999993
 40
0.1874999999999989
 40
0.1874999999999989
 40
0.2187499999999988
 40
0.2187499999999988
 40
0.2499999999999987
 40
0.2499999999999987
 40
0.2812499999999986
 40
0.2812499999999986
 40
0.3124999999999985
 40
0.3124999999999985
 40
0.3749999999999982
 40
0.3749999999999982
 40
0.437499999999998
 40
0.437499999999998
 40
0.4687499999999979
 40
0.4687499999999979
 40
0.4999999999999978
 40
0.4999999999999978
 40
0.5312499999999979
 40
0.5312499999999979
 40
0.5624999999999981
 40
0.5624999999999981
 40
0.6249999999999984
 40
0.6249999999999984
 40
0.6874999999999988
 40
0.6874999999999988
 40
0.749999999999999
 40
0.749999999999999
 40
0.7812499999999992
 40
0.7812499999999992
 40
0.8124999999999993
 40
0.8124999999999993
 40
0.8749999999999996
 40
0.8749999999999996
 40
0.9374999999999998
 40
0.9374999999999998
 40
1.0
 40
1.0
 40
1.0
 40
1.0
 10
3.901439252990851
 20
3.866096677130086
 30
0.0
 10
3.888481765976015
 20
3.861515513662423
 30
0.0
 10
3.876720475572564
 20
3.854821606415475
 30
0.0
 10
3.856250831511306
 20
3.838247646876093
 30
0.0
 10
3.847249175665752
 20
3.828086344546445
 30
0.0
 10
3.833089304663989
 20
3.805034392185294
 30
0.0
 10
3.827707401989576
 20
3.791675333730177
 30
0.0
 10
3.823541317993406
 20
3.770545601201793
 30
0.0
 10
3.822774939172
 20
3.763223356662961
 30
0.0
 10
3.82263409240359
 20
3.748522252361278
 30
0.0
 10
3.823243930404494
 20
3.741341608035768
 30
0.0
 10
3.825719674066173
 20
3.727254091381317
 30
0.0
 10
3.82762051657176
 20
3.720277323076388
 30
0.0
 10
3.832509160019316
 20
3.707091043376364
 30
0.0
 10
3.835482566483683
 20
3.700859337320037
 30
0.0
 10
3.845890265683628
 20
3.683129467624571
 30
0.0
 10
3.854591914801455
 20
3.672927934313675
 30
0.0
 10
3.874942585767168
 20
3.655804743062013
 30
0.0
 10
3.886214330355718
 20
3.649100590858278
 30
0.0
 10
3.905587771911862
 20
3.641793923900726
 30
0.0
 10
3.912314637186375
 20
3.639899436829634
 30
0.0
 10
3.926299244175942
 20
3.637310219684691
 30
0.0
 10
3.933641546431591
 20
3.636628364522046
 30
0.0
 10
3.948065095433307
 20
3.636633736456493
 30
0.0
 10
3.955333932020852
 20
3.63730965782761
 30
0.0
 10
3.969393673585588
 20
3.639919307831672
 30
0.0
 10
3.976106184976116
 20
3.641816799447059
 30
0.0
 10
3.995503099233725
 20
3.649148990040043
 30
0.0
 10
4.006798166084343
 20
3.655884125127099
 30
0.0
 10
4.027148496919026
 20
3.673053999272689
 30
0.0
 10
4.035729802761874
 20
3.683119630375738
 30
0.0
 10
4.049657791017598
 20
3.706870940998066
 30
0.0
 10
4.054685552177795
 20
3.720248528374301
 30
0.0
 10
4.058399728994551
 20
3.741535020706864
 30
0.0
 10
4.05898734070455
 20
3.74870346950219
 30
0.0
 10
4.058839493606202
 20
3.763189818650968
 30
0.0
 10
4.058078826996494
 20
3.770528167668153
 30
0.0
 10
4.053926602806609
 20
3.791617298363975
 30
0.0
 10
4.048594112878961
 20
3.804931291912111
 30
0.0
 10
4.034293747079017
 20
3.828207329035605
 30
0.0
 10
4.025379045038523
 20
3.838254858135023
 30
0.0
 10
4.004711219205637
 20
3.854956562614513
 30
0.0
 10
3.993175770642252
 20
3.861501769926227
 30
0.0
 10
3.980179410471167
 20
3.866096677130086
 30
0.0
  0
SPLINE
  5
116
330
1F
100
AcDbEntity
  8
0
  6
HIDDEN
 62
     7
100
AcDbSpline
210
0.0
220
0.0
230
1.0
 70
     8
 71
     3
 72
    30
 73
    26
 74
     0
 42
0.00000001
 43
0.00000001
 40
0.0
 40
0.0
 40
0.0
 40
0.0
 40
0.0206268853743503
 40
0.0640476844454834
 40
0.1048676592093902
 40
0.1466626486138425
 40
0.1920027438142831
 40
0.2382720662591923
 40
0.292493903627237
 40
0.3479754250594589
 40
0.3914724253719304
 40
0.435976940949572
 40
0.4707085574366133
 40
0.5064114913048904
 40
0.5411643293877413
 40
0.5768873633392653
 40
0.6247316365731195
 40
0.6739146729165643
 40
0.7237262360958482
 40
0.7745057266697004
 40
0.8345593031492523
 40
0.8969361608419991
 40
0.9388563270012988
 40
0.9819507707674152
 40
1.0
 40
1.0
 40
1.0
 40
1.0
 10
2.830289178651018
 20
3.91200875634136
 30
0.0
 10
2.830345366648731
 20
3.91205085745506
 30
0.0
 10
2.830519833665046
 20
3.91218158387333
 30
0.0
 10
2.82832206114191
 20
3.910534800132826
 30
0.0
 10
2.824012698921281
 20
3.907349618809031
 30
0.0
 10
2.817615314117523
 20
3.902721615868074
 30
0.0
 10
2.8091477530641
 20
3.896803696925451
 30
0.0
 10
2.798065686087386
 20
3.88945769121202
 30
0.0
 10
2.784331136221166
 20
3.881081530855816
 30
0.0
 10
2.768983438775357
 20
3.872976378531142
 30
0.0
 10
2.753090795281961
 20
3.866247842752214
 30
0.0
 10
2.738349887480483
 20
3.861748777707305
 30
0.0
 10
2.723779149133021
 20
3.859224706982807
 30
0.0
 10
2.710093766628691
 20
3.858626659735451
 30
0.0
 10
2.696361559745966
 20
3.859859583159488
 30
0.0
 10
2.681579834370522
 20
3.863049310867344
 30
0.0
 10
2.666024624007962
 20
3.868463830207089
 30
0.0
 10
2.650354708539869
 20
3.875787825260747
 30
0.0
 10
2.635975480747065
 20
3.883816174396019
 30
0.0
 10
2.622364377635825
 20
3.892345749918364
 30
0.0
 10
2.610068140799394
 20
3.900729861470771
 30
0.0
 10
2.601313681956592
 20
3.907051096928137
 30
0.0
 10
2.596414851220568
 20
3.910675652341657
 30
0.0
 10
2.594345850105044
 20
3.912226648701302
 30
0.0
 10
2.594564492851983
 20
3.912062783233741
 30
0.0
 10
2.594629034821184
 20
3.912014411174258
 30
0.0
  0
SPLINE
  5
117
330
1F
100
AcDbEntity
  8
0
  6
HIDDEN
 62
     7
100
AcDbSpline
210
0.0
220
0.0
230
1.0
 70
     8
 71
     3
 72
    48
 73
    44
 74
     0
 42
0.00000001
 43
0.00000001
 40
0.0
 40
0.0
 40
0.0
 40
0.0
 40
0.0625000000000005
 40
0.0625000000000005
 40
0.1250000000000011
 40
0.1250000000000011
 40
0.1875000000000016
 40
0.1875000000000016
 40
0.2187500000000018
 40
0.2187500000000018
 40
0.2500000000000021
 40
0.2500000000000021
 40
0.2812500000000024
 40
0.2812500000000024
 40
0.3125000000000027
 40
0.3125000000000027
 40
0.375000000000003
 40
0.375000000000003
 40
0.4375000000000033
 40
0.4375000000000033
 40
0.4687500000000034
 40
0.4687500000000034
 40
0.5000000000000036
 40
0.5000000000000036
 40
0.5312500000000034
 40
0.5312500000000034
 40
0.5625000000000033
 40
0.5625000000000033
 40
0.6250000000000028
 40
0.6250000000000028
 40
0.6875000000000023
 40
0.6875000000000023
 40
0.7500000000000019
 40
0.7500000000000019
 40
0.7812500000000017
 40
0.7812500000000017
 40
0.8125000000000016
 40
0.8125000000000016
 40
0.875000000000001
 40
0.875000000000001
 40
0.9375000000000006
 40
0.9375000000000006
 40
1.0
 40
1.0
 40
1.0
 40
1.0
 10
2.673092796297938
 20
3.866096677130086
 30
0.0
 10
2.660135309283102
 20
3.861515513662423
 30
0.0
 10
2.648374018879651
 20
3.854821606415475
 30
0.0
 10
2.627904374818393
 20
3.838247646876093
 30
0.0
 10
2.618902718972839
 20
3.828086344546446
 30
0.0
 10
2.604742847971076
 20
3.805034392185294
 30
0.0
 10
2.599360945296662
 20
3.791675333730177
 30
0.0
 10
2.595194861300492
 20
3.770545601201793
 30
0.0
 10
2.594428482479086
 20
3.763223356662962
 30
0.0
 10
2.594287635710677
 20
3.748522252361278
 30
0.0
 10
2.594897473711581
 20
3.741341608035768
 30
0.0
 10
2.59737321737326
 20
3.727254091381317
 30
0.0
 10
2.599274059878846
 20
3.720277323076388
 30
0.0
 10
2.604162703326403
 20
3.707091043376364
 30
0.0
 10
2.607136109790769
 20
3.700859337320037
 30
0.0
 10
2.617543808990714
 20
3.683129467624571
 30
0.0
 10
2.626245458108541
 20
3.672927934313675
 30
0.0
 10
2.646596129074255
 20
3.655804743062013
 30
0.0
 10
2.657867873662805
 20
3.649100590858278
 30
0.0
 10
2.677241315218948
 20
3.641793923900726
 30
0.0
 10
2.683968180493462
 20
3.639899436829634
 30
0.0
 10
2.697952787483029
 20
3.637310219684692
 30
0.0
 10
2.705295089738677
 20
3.636628364522046
 30
0.0
 10
2.719718638740394
 20
3.636633736456493
 30
0.0
 10
2.726987475327939
 20
3.63730965782761
 30
0.0
 10
2.741047216892675
 20
3.639919307831672
 30
0.0
 10
2.747759728283203
 20
3.64181679944706
 30
0.0
 10
2.767156642540813
 20
3.649148990040043
 30
0.0
 10
2.77845170939143
 20
3.655884125127099
 30
0.0
 10
2.798802040226113
 20
3.67305399927269
 30
0.0
 10
2.80738334606896
 20
3.683119630375738
 30
0.0
 10
2.821311334324685
 20
3.706870940998066
 30
0.0
 10
2.826339095484881
 20
3.720248528374301
 30
0.0
 10
2.830053272301638
 20
3.741535020706865
 30
0.0
 10
2.830640884011637
 20
3.74870346950219
 30
0.0
 10
2.830493036913289
 20
3.763189818650968
 30
0.0
 10
2.82973237030358
 20
3.770528167668153
 30
0.0
 10
2.825580146113695
 20
3.791617298363975
 30
0.0
 10
2.820247656186047
 20
3.804931291912111
 30
0.0
 10
2.805947290386104
 20
3.828207329035605
 30
0.0
 10
2.797032588345609
 20
3.838254858135024
 30
0.0
 10
2.776364762512724
 20
3.854956562614514
 30
0.0
 10
2.764829313949338
 20
3.861501769926227
 30
0.0
 10
2.751832953778254
 20
3.866096677130086
 30
0.0
  0
SPLINE
  5
118
330
1F
100
AcDbEntity
  8
0
  6
HIDDEN
 62
     7
100
AcDbSpline
210
0.0
220
0.0
230
1.0
 70
     8
 71
     3
 72
    24
 73
    20
 74
     0
 42
0.00000001
 43
0.00000001
 40
0.0
 40
0.0
 40
0.0
 40
0.0
 40
0.0511452695412806
 40
0.1097849041857713
 40
0.1760426404866258
 40
0.2500007124488955
 40
0.3252624175245339
 40
0.3919410836083866
 40
0.4501127671855644
 40
0.4998993797249241
 40
0.5497129373081512
 40
0.607908221707783
 40
0.6746067933060481
 40
0.7498845076093289
 40
0.8239651410555033
 40
0.890277596823416
 40
0.9489037360982152
 40
0.9999672860561254
 40
0.9999999999999999
 40
0.9999999999999999
 40
0.9999999999999999
 40
0.9999999999999999
 10
2.594352638817623
 20
4.248414456614024
 30
0.0
 10
2.594654169797121
 20
4.248272480584482
 30
0.0
 10
2.595301415377995
 20
4.247967724642442
 30
0.0
 10
2.601034515666092
 20
4.245882841831011
 30
0.0
 10
2.611735032240177
 20
4.242709659390735
 30
0.0
 10
2.62831911936692
 20
4.238196536676727
 30
0.0
 10
2.649287688534882
 20
4.233665170809033
 30
0.0
 10
2.671717482365874
 20
4.230387039823054
 30
0.0
 10
2.692797345063067
 20
4.22835531759892
 30
0.0
 10
2.712439868058811
 20
4.227567231896122
 30
0.0
 10
2.732085747801472
 20
4.228356889207009
 30
0.0
 10
2.753176849739432
 20
4.230388384367852
 30
0.0
 10
2.775612731404758
 20
4.233663442150411
 30
0.0
 10
2.796616315554852
 20
4.23820074113254
 30
0.0
 10
2.813158114569116
 20
4.242690079598677
 30
0.0
 10
2.824045216115441
 20
4.245945840042765
 30
0.0
 10
2.829196217490528
 20
4.247782362727797
 30
0.0
 10
2.83108458444983
 20
4.248626436256741
 30
0.0
 10
2.830572455502258
 20
4.248414184888588
 30
0.0
 10
2.8305721276161
 20
4.248414048996473
 30
0.0
  0
SPLINE
  5
119
330
1F
100
AcDbEntity
  8
0
  6
HIDDEN
 62
     7
100
AcDbSpline
210
0.0
220
0.0
230
1.0
 70
     8
 71
     3
 72
    24
 73
    20
 74
     0
 42
0.00000001
 43
0.00000001
 40
0.0
 40
0.0
 40
0.0
 40
0.0
 40
0.0511452695413216
 40
0.1097849041858257
 40
0.1760426404866665
 40
0.2500007124488947
 40
0.3252624175241257
 40
0.3919410836078424
 40
0.4501127671851552
 40
0.4998993797249195
 40
0.5497129373079538
 40
0.60790822170752
 40
0.6746067933058503
 40
0.749884507609328
 40
0.8239651410553362
 40
0.8902775968231931
 40
0.9489037360980478
 40
0.9999672860561258
 40
1.0
 40
1.0
 40
1.0
 40
1.0
 10
3.822699095510536
 20
4.248414456614024
 30
0.0
 10
3.823000626490034
 20
4.248272480584482
 30
0.0
 10
3.82364787207091
 20
4.247967724642442
 30
0.0
 10
3.829380972359012
 20
4.245882841831011
 30
0.0
 10
3.840081488933098
 20
4.242709659390736
 30
0.0
 10
3.856665576059807
 20
4.238196536676734
 30
0.0
 10
3.877634145227699
 20
4.233665170809052
 30
0.0
 10
3.90006393905863
 20
4.230387039823081
 30
0.0
 10
3.921143801755864
 20
4.228355317598947
 30
0.0
 10
3.940786324751651
 20
4.227567231896122
 30
0.0
 10
3.960432204494331
 20
4.228356889206982
 30
0.0
 10
3.981523306432271
 20
4.230388384367821
 30
0.0
 10
4.003959188097626
 20
4.233663442150388
 30
0.0
 10
4.024962772247732
 20
4.238200741132534
 30
0.0
 10
4.041504571262007
 20
4.242690079598679
 30
0.0
 10
4.052391672808306
 20
4.245945840042772
 30
0.0
 10
4.057542674183507
 20
4.247782362727785
 30
0.0
 10
4.059431041142612
 20
4.248626436256767
 30
0.0
 10
4.058918912195171
 20
4.248414184888588
 30
0.0
 10
4.058918584309014
 20
4.248414048996473
 30
0.0
  0
ARC
  5
11A
330
1F
100
AcDbEntity
  8
0
  6
HIDDEN
 62
     7
100
AcDbCircle
 10
2.712462875
 20
3.7547412785
 30
0.0
 40
0.1181102362204726
100
AcDbArc
 50
70.5287793655
 51
109.4712206345
  0
ARC
  5
11B
330
1F
100
AcDbEntity
  8
0
  6
HIDDEN
 62
     7
100
AcDbCircle
 10
3.9408093317
 20
3.7547412785
 30
0.0
 40
0.1181102362204726
100
AcDbArc
 50
70.5287793655
 51
109.4712206345
  0
CIRCLE
  5
11C
330
1F
100
AcDbEntity
  8
0
  6
HIDDEN
 62
     7
100
AcDbCircle
 10
3.9408093317
 20
3.7547412785
 30
0.0
 40
0.0981102362204731
  0
LINE
  5
11D
330
1F
100
AcDbEntity
  8
0
  6
HIDDEN
 62
     7
100
AcDbLine
 10
4.058919568
 20
3.7547412785
 30
0.0
 11
4.0588816368
 21
3.7517481739
 31
0.0
  0
LINE
  5
11E
330
1F
100
AcDbEntity
  8
0
  6
HIDDEN
 62
     7
100
AcDbLine
 10
3.89976024
 20
3.8654887388
 30
0.0
 11
3.901439253
 21
3.8660966771
 31
0.0
  0
ARC
  5
11F
330
1F
100
AcDbEntity
  8
0
  6
HIDDEN
 62
     7
100
AcDbCircle
 10
3.9408093317
 20
3.7547412785
 30
0.0
 40
0.1181102362204726
100
AcDbArc
 50
59.5031987056
 51
70.5287793655
  0
LINE
  5
120
330
1F
100
AcDbEntity
  8
0
  6
HIDDEN
 62
     7
100
AcDbLine
 10
4.058454575
 20
3.7652114571
 30
0.0
 11
4.058919568
 21
3.7547412785
 31
0.0
  0
LINE
  5
121
330
1F
100
AcDbEntity
  8
0
  6
HIDDEN
 62
     7
100
AcDbLine
 10
3.9408093317
 20
3.6865503018
 30
0.0
 11
3.8817542136
 21
3.7206457902
 31
0.0
  0
LINE
  5
122
330
1F
100
AcDbEntity
  8
0
  6
HIDDEN
 62
     7
100
AcDbLine
 10
3.9998644498
 20
3.7206457902
 30
0.0
 11
3.9408093317
 21
3.6865503018
 31
0.0
  0
LINE
  5
123
330
1F
100
AcDbEntity
  8
0
  6
HIDDEN
 62
     7
100
AcDbLine
 10
3.9998644498
 20
3.7888367669
 30
0.0
 11
3.9998644498
 21
3.7206457902
 31
0.0
  0
LINE
  5
124
330
1F
100
AcDbEntity
  8
0
  6
HIDDEN
 62
     7
100
AcDbLine
 10
3.8817542136
 20
3.7888367669
 30
0.0
 11
3.9408093317
 21
3.8229322552
 31
0.0
  0
LINE
  5
125
330
1F
100
AcDbEntity
  8
0
  6
HIDDEN
 62
     7
100
AcDbLine
 10
3.8817542136
 20
3.7206457902
 30
0.0
 11
3.8817542136
 21
3.7888367669
 31
0.0
  0
LINE
  5
126
330
1F
100
AcDbEntity
  8
0
  6
HIDDEN
 62
     7
100
AcDbLine
 10
3.9408093317
 20
3.8229322552
 30
0.0
 11
3.9998644498
 21
3.7888367669
 31
0.0
  0
CIRCLE
  5
127
330
1F
100
AcDbEntity
  8
0
  6
HIDDEN
 62
     7
100
AcDbCircle
 10
2.712462875
 20
3.7547412785
 30
0.0
 40
0.0981102362204727
  0
POLYLINE
  5
128
330
1F
100
AcDbEntity
  8
0
  6
HIDDEN
 62
     7
100
AcDb2dPolyline
 66
     1
 10
0.0
 20
0.0
 30
0.0
  0
VERTEX
  5
2B1
330
128
100
AcDbEntity
  8
0
  6
HIDDEN
 62
     7
100
AcDbVertex
100
AcDb2dVertex
 10
2.5943526388
 20
3.7547412785
 30
0.0
  0
VERTEX
  5
2B2
330
128
100
AcDbEntity
  8
0
  6
HIDDEN
 62
     7
100
AcDbVertex
100
AcDb2dVertex
 10
2.595151258
 20
3.741029517
 30
0.0
  0
VERTEX
  5
2B3
330
128
100
AcDbEntity
  8
0
  6
HIDDEN
 62
     7
100
AcDbVertex
100
AcDb2dVertex
 10
2.5967910821
 20
3.7308652607
 30
0.0
  0
SEQEND
  5
2B4
330
128
100
AcDbEntity
  8
0
  6
HIDDEN
 62
     7
  0
LINE
  5
129
330
1F
100
AcDbEntity
  8
0
  6
HIDDEN
 62
     7
100
AcDbLine
 10
2.7533855391
 20
3.8655355178
 30
0.0
 11
2.7518329538
 21
3.8660966771
 31
0.0
  0
POLYLINE
  5
12A
330
1F
100
AcDbEntity
  8
0
  6
HIDDEN
 62
     7
100
AcDb2dPolyline
 66
     1
 10
0.0
 20
0.0
 30
0.0
  0
VERTEX
  5
2B5
330
12A
100
AcDbEntity
  8
0
  6
HIDDEN
 62
     7
100
AcDbVertex
100
AcDb2dVertex
 10
2.6730927963
 20
3.8660966771
 30
0.0
  0
VERTEX
  5
2B6
330
12A
100
AcDbEntity
  8
0
  6
HIDDEN
 62
     7
100
AcDbVertex
100
AcDb2dVertex
 10
2.6656818003
 20
3.8631919998
 30
0.0
  0
VERTEX
  5
2B7
330
12A
100
AcDbEntity
  8
0
  6
HIDDEN
 62
     7
100
AcDbVertex
100
AcDb2dVertex
 10
2.653829475
 20
3.8572700662
 30
0.0
  0
SEQEND
  5
2B8
330
12A
100
AcDbEntity
  8
0
  6
HIDDEN
 62
     7
  0
LINE
  5
12B
330
1F
100
AcDbEntity
  8
0
  6
HIDDEN
 62
     7
100
AcDbLine
 10
2.6534077569
 20
3.7206457902
 30
0.0
 11
2.712462875
 21
3.6865503018
 31
0.0
  0
LINE
  5
12C
330
1F
100
AcDbEntity
  8
0
  6
HIDDEN
 62
     7
100
AcDbLine
 10
2.6534077569
 20
3.7888367669
 30
0.0
 11
2.6534077569
 21
3.7206457902
 31
0.0
  0
LINE
  5
12D
330
1F
100
AcDbEntity
  8
0
  6
HIDDEN
 62
     7
100
AcDbLine
 10
2.712462875
 20
3.6865503018
 30
0.0
 11
2.7715179931
 21
3.7206457902
 31
0.0
  0
LINE
  5
12E
330
1F
100
AcDbEntity
  8
0
  6
HIDDEN
 62
     7
100
AcDbLine
 10
2.7715179931
 20
3.7206457902
 30
0.0
 11
2.7715179931
 21
3.7888367669
 31
0.0
  0
LINE
  5
12F
330
1F
100
AcDbEntity
  8
0
  6
HIDDEN
 62
     7
100
AcDbLine
 10
2.712462875
 20
3.8229322552
 30
0.0
 11
2.6534077569
 21
3.7888367669
 31
0.0
  0
LINE
  5
130
330
1F
100
AcDbEntity
  8
0
  6
HIDDEN
 62
     7
100
AcDbLine
 10
2.7715179931
 20
3.7888367669
 30
0.0
 11
2.712462875
 21
3.8229322552
 31
0.0
  0
LINE
  5
131
330
1F
100
AcDbEntity
  8
0
  6
HIDDEN
 62
     7
100
AcDbLine
 10
4.058919568
 20
4.2465523021
 30
0.0
 11
3.9754750756
 21
4.2465523021
 31
0.0
  0
LINE
  5
132
330
1F
100
AcDbEntity
  8
0
  6
HIDDEN
 62
     7
100
AcDbLine
 10
3.906055016
 20
4.2465523021
 30
0.0
 11
3.8226990955
 21
4.2465523021
 31
0.0
  0
LINE
  5
133
330
1F
100
AcDbEntity
  8
0
  6
HIDDEN
 62
     7
100
AcDbLine
 10
3.8226990955
 20
3.9322215935
 30
0.0
 11
4.058919568
 21
3.9322215935
 31
0.0
  0
LINE
  5
134
330
1F
100
AcDbEntity
  8
0
  6
HIDDEN
 62
     7
100
AcDbLine
 10
4.038919568
 20
3.9122215935
 30
0.0
 11
3.8426990955
 21
3.9122215935
 31
0.0
  0
LINE
  5
135
330
1F
100
AcDbEntity
  8
0
  6
HIDDEN
 62
     7
100
AcDbLine
 10
3.9408093317
 20
4.1665523021
 30
0.0
 11
3.9408093317
 21
4.2665523021
 31
0.0
  0
LINE
  5
136
330
1F
100
AcDbEntity
  8
0
  6
HIDDEN
 62
     7
100
AcDbLine
 10
3.9408093317
 20
4.1665523021
 30
0.0
 11
3.9998644498
 21
4.1665523021
 31
0.0
  0
LINE
  5
137
330
1F
100
AcDbEntity
  8
0
  6
HIDDEN
 62
     7
100
AcDbLine
 10
3.8817542136
 20
4.1665523021
 30
0.0
 11
3.9408093317
 21
4.1665523021
 31
0.0
  0
LINE
  5
138
330
1F
100
AcDbEntity
  8
0
  6
HIDDEN
 62
     7
100
AcDbLine
 10
3.8817542136
 20
4.1665523021
 30
0.0
 11
3.8817542136
 21
4.2665523021
 31
0.0
  0
LINE
  5
139
330
1F
100
AcDbEntity
  8
0
  6
HIDDEN
 62
     7
100
AcDbLine
 10
3.9998644498
 20
4.1665523021
 30
0.0
 11
3.9998644498
 21
4.2665523021
 31
0.0
  0
LINE
  5
13A
330
1F
100
AcDbEntity
  8
0
  6
HIDDEN
 62
     7
100
AcDbLine
 10
2.5943526388
 20
4.2465523021
 30
0.0
 11
2.6776174923
 21
4.2465523021
 31
0.0
  0
LINE
  5
13B
330
1F
100
AcDbEntity
  8
0
  6
HIDDEN
 62
     7
100
AcDbLine
 10
2.7470391408
 20
4.2465523021
 30
0.0
 11
2.8305731113
 21
4.2465523021
 31
0.0
  0
LINE
  5
13C
330
1F
100
AcDbEntity
  8
0
  6
HIDDEN
 62
     7
100
AcDbLine
 10
2.8305731113
 20
3.9322215935
 30
0.0
 11
2.5943526388
 21
3.9322215935
 31
0.0
  0
LINE
  5
13D
330
1F
100
AcDbEntity
  8
0
  6
HIDDEN
 62
     7
100
AcDbLine
 10
2.6143526388
 20
3.9122215935
 30
0.0
 11
2.8105731113
 21
3.9122215935
 31
0.0
  0
LINE
  5
13E
330
1F
100
AcDbEntity
  8
0
  6
HIDDEN
 62
     7
100
AcDbLine
 10
2.712462875
 20
4.1665523021
 30
0.0
 11
2.712462875
 21
4.2665523021
 31
0.0
  0
LINE
  5
13F
330
1F
100
AcDbEntity
  8
0
  6
HIDDEN
 62
     7
100
AcDbLine
 10
2.7715179931
 20
4.1665523021
 30
0.0
 11
2.712462875
 21
4.1665523021
 31
0.0
  0
LINE
  5
140
330
1F
100
AcDbEntity
  8
0
  6
HIDDEN
 62
     7
100
AcDbLine
 10
2.712462875
 20
4.1665523021
 30
0.0
 11
2.6534077569
 21
4.1665523021
 31
0.0
  0
LINE
  5
141
330
1F
100
AcDbEntity
  8
0
  6
HIDDEN
 62
     7
100
AcDbLine
 10
2.7715179931
 20
4.1665523021
 30
0.0
 11
2.7715179931
 21
4.2665523021
 31
0.0
  0
LINE
  5
142
330
1F
100
AcDbEntity
  8
0
  6
HIDDEN
 62
     7
100
AcDbLine
 10
2.6534077569
 20
4.1665523021
 30
0.0
 11
2.6534077569
 21
4.2665523021
 31
0.0
  0
LINE
  5
143
330
1F
100
AcDbEntity
  8
0
  6
HIDDEN
 62
     7
100
AcDbLine
 10
4.1927778357
 20
3.9422215935
 30
0.0
 11
4.1627778357
 21
3.9122215935
 31
0.0
  0
LINE
  5
144
330
1F
100
AcDbEntity
  8
0
  6
HIDDEN
 62
     7
100
AcDbLine
 10
4.1627778357
 20
3.5972609636
 30
0.0
 11
4.1927778357
 21
3.5672609636
 31
0.0
  0
LINE
  5
145
330
1F
100
AcDbEntity
  8
0
  6
HIDDEN
 62
     7
100
AcDbLine
 10
2.4604943711
 20
3.5672609636
 30
0.0
 11
2.4904943711
 21
3.5972609636
 31
0.0
  0
LINE
  5
146
330
1F
100
AcDbEntity
  8
0
  6
HIDDEN
 62
     7
100
AcDbLine
 10
2.4904943711
 20
3.9122215935
 30
0.0
 11
2.4604943711
 21
3.9422215935
 31
0.0
  0
LINE
  5
147
330
1F
100
AcDbEntity
  8
0
  6
HIDDEN
 62
     7
100
AcDbLine
 10
2.5946290348
 20
3.9122215935
 30
0.0
 11
2.4904943711
 21
3.9122215935
 31
0.0
  0
LINE
  5
148
330
1F
100
AcDbEntity
  8
0
  6
HIDDEN
 62
     7
100
AcDbLine
 10
3.8229754915
 20
3.9122215935
 30
0.0
 11
2.8302891787
 21
3.9122215935
 31
0.0
  0
LINE
  5
149
330
1F
100
AcDbEntity
  8
0
  6
HIDDEN
 62
     7
100
AcDbLine
 10
4.1627778357
 20
3.9122215935
 30
0.0
 11
4.0586356353
 21
3.9122215935
 31
0.0
  0
LINE
  5
14A
330
1F
100
AcDbEntity
  8
0
  6
HIDDEN
 62
     7
100
AcDbLine
 10
2.4904943711
 20
3.5972609636
 30
0.0
 11
4.1627778357
 21
3.5972609636
 31
0.0
  0
LINE
  5
14B
330
1F
100
AcDbEntity
  8
0
  6
HIDDEN
 62
     7
100
AcDbLine
 10
2.8305731119
 20
4.248414456
 30
0.0
 11
2.8535774035
 21
4.2665523016
 31
0.0
  0
LINE
  5
14C
330
1F
100
AcDbEntity
  8
0
  6
HIDDEN
 62
     7
100
AcDbLine
 10
2.5713483319
 20
4.2665523045
 30
0.0
 11
2.5943526259
 21
4.2484144589
 31
0.0
  0
LINE
  5
14D
330
1F
100
AcDbEntity
  8
0
  6
HIDDEN
 62
     7
100
AcDbLine
 10
4.0589195685
 20
4.248414456
 30
0.0
 11
4.0819238602
 21
4.2665523016
 31
0.0
  0
LINE
  5
14E
330
1F
100
AcDbEntity
  8
0
  6
HIDDEN
 62
     7
100
AcDbLine
 10
3.7996947886
 20
4.2665523045
 30
0.0
 11
3.8226990826
 21
4.2484144589
 31
0.0
  0
LINE
  5
14F
330
1F
100
AcDbEntity
  8
0
  6
HIDDEN
 62
     7
100
AcDbLine
 10
2.8305731113
 20
3.9120087565
 30
0.0
 11
2.8305731113
 21
4.2484140736
 31
0.0
  0
LINE
  5
150
330
1F
100
AcDbEntity
  8
0
  6
HIDDEN
 62
     7
100
AcDbLine
 10
2.5943526388
 20
4.2484144566
 30
0.0
 11
2.5943526388
 21
3.9120144196
 31
0.0
  0
LINE
  5
151
330
1F
100
AcDbEntity
  8
0
  6
HIDDEN
 62
     7
100
AcDbLine
 10
4.058919568
 20
3.9120087565
 30
0.0
 11
4.058919568
 21
4.2484140736
 31
0.0
  0
LINE
  5
152
330
1F
100
AcDbEntity
  8
0
  6
HIDDEN
 62
     7
100
AcDbLine
 10
3.8226990955
 20
4.2484144566
 30
0.0
 11
3.8226990955
 21
3.9120144196
 31
0.0
  0
LINE
  5
153
330
1F
100
AcDbEntity
  8
0
  6
HIDDEN
 62
     7
100
AcDbLine
 10
4.058919568
 20
4.2465523021
 30
0.0
 11
4.047829989
 21
4.2576418811
 31
0.0
  0
LINE
  5
154
330
1F
100
AcDbEntity
  8
0
  6
HIDDEN
 62
     7
100
AcDbLine
 10
3.8337895645
 20
4.2576427711
 30
0.0
 11
3.8226990955
 21
4.2465523021
 31
0.0
  0
LINE
  5
155
330
1F
100
AcDbEntity
  8
0
  6
HIDDEN
 62
     7
100
AcDbLine
 10
4.058919568
 20
3.9322215935
 30
0.0
 11
4.058919568
 21
4.2465523021
 31
0.0
  0
LINE
  5
156
330
1F
100
AcDbEntity
  8
0
  6
HIDDEN
 62
     7
100
AcDbLine
 10
3.8226990955
 20
4.2465523021
 30
0.0
 11
3.8226990955
 21
3.9322215935
 31
0.0
  0
LINE
  5
157
330
1F
100
AcDbEntity
  8
0
  6
HIDDEN
 62
     7
100
AcDbLine
 10
3.8226990955
 20
3.9322215935
 30
0.0
 11
3.8426990955
 21
3.9122215935
 31
0.0
  0
LINE
  5
158
330
1F
100
AcDbEntity
  8
0
  6
HIDDEN
 62
     7
100
AcDbLine
 10
4.038919568
 20
3.9122215935
 30
0.0
 11
4.058919568
 21
3.9322215935
 31
0.0
  0
LINE
  5
159
330
1F
100
AcDbEntity
  8
0
  6
HIDDEN
 62
     7
100
AcDbLine
 10
2.8305731113
 20
3.9322215935
 30
0.0
 11
2.8305731113
 21
4.2465523021
 31
0.0
  0
LINE
  5
15A
330
1F
100
AcDbEntity
  8
0
  6
HIDDEN
 62
     7
100
AcDbLine
 10
2.5943526388
 20
4.2465523021
 30
0.0
 11
2.5943526388
 21
3.9322215935
 31
0.0
  0
LINE
  5
15B
330
1F
100
AcDbEntity
  8
0
  6
HIDDEN
 62
     7
100
AcDbLine
 10
2.8305731113
 20
4.2465523021
 30
0.0
 11
2.8194835323
 21
4.2576418811
 31
0.0
  0
LINE
  5
15C
330
1F
100
AcDbEntity
  8
0
  6
HIDDEN
 62
     7
100
AcDbLine
 10
2.6054431078
 20
4.2576427711
 30
0.0
 11
2.5943526388
 21
4.2465523021
 31
0.0
  0
LINE
  5
15D
330
1F
100
AcDbEntity
  8
0
  6
HIDDEN
 62
     7
100
AcDbLine
 10
2.5943526388
 20
3.9322215935
 30
0.0
 11
2.6143526388
 21
3.9122215935
 31
0.0
  0
LINE
  5
15E
330
1F
100
AcDbEntity
  8
0
  6
HIDDEN
 62
     7
100
AcDbLine
 10
2.8105731113
 20
3.9122215935
 30
0.0
 11
2.8305731113
 21
3.9322215935
 31
0.0
  0
LINE
  5
15F
330
1F
100
AcDbEntity
  8
0
  6
CONTINUOUS
 62
     7
100
AcDbLine
 10
8.7467781238
 20
3.644650544
 30
0.0
 11
8.7587586221
 21
3.6566310423
 31
0.0
  0
LINE
  5
160
330
1F
100
AcDbEntity
  8
0
  6
CONTINUOUS
 62
     7
100
AcDbLine
 10
8.7587586221
 20
3.8528515147
 30
0.0
 11
8.7467781238
 21
3.864832013
 31
0.0
  0
LINE
  5
161
330
1F
100
AcDbEntity
  8
0
  6
CONTINUOUS
 62
     7
100
AcDbLine
 10
8.3570383329
 20
4.2545718039
 30
0.0
 11
8.3450578347
 21
4.2665523021
 31
0.0
  0
LINE
  5
162
330
1F
100
AcDbEntity
  8
0
  6
CONTINUOUS
 62
     7
100
AcDbLine
 10
8.1488373622
 20
4.2665523021
 30
0.0
 11
8.136856864
 21
4.2545718039
 31
0.0
  0
CIRCLE
  5
163
330
1F
100
AcDbEntity
  8
0
  6
CONTINUOUS
 62
     7
100
AcDbCircle
 10
8.2469475984
 20
3.7547412785
 30
0.0
 40
0.481811023622047
  0
CIRCLE
  5
164
330
1F
100
AcDbEntity
  8
0
  6
CONTINUOUS
 62
     7
100
AcDbCircle
 10
8.2469475984
 20
3.7547412785
 30
0.0
 40
0.5118110236220463
  0
CIRCLE
  5
165
330
1F
100
AcDbEntity
  8
0
  6
CONTINUOUS
 62
     7
100
AcDbCircle
 10
8.2469475984
 20
3.7547412785
 30
0.0
 40
0.187480314960629
  0
CIRCLE
  5
166
330
1F
100
AcDbEntity
  8
0
  6
CONTINUOUS
 62
     7
100
AcDbCircle
 10
8.2469475984
 20
3.7547412785
 30
0.0
 40
0.1574803149606296
  0
LINE
  5
167
330
1F
100
AcDbEntity
  8
0
  6
CONTINUOUS
 62
     7
100
AcDbLine
 10
8.7587586221
 20
3.8528515147
 30
0.0
 11
8.7587586221
 21
3.6566310423
 31
0.0
  0
LINE
  5
168
330
1F
100
AcDbEntity
  8
0
  6
CONTINUOUS
 62
     7
100
AcDbLine
 10
8.1488373622
 20
4.2665523021
 30
0.0
 11
8.3450578347
 21
4.2665523021
 31
0.0
  0
LINE
  5
169
330
1F
100
AcDbEntity
  8
0
  6
HIDDEN
 62
     7
100
AcDbLine
 10
8.7406207765
 20
3.7547412785
 30
0.0
 11
8.7404882115
 21
3.7586670442
 31
0.0
  0
SPLINE
  5
16A
330
1F
100
AcDbEntity
  8
0
  6
HIDDEN
 62
     7
100
AcDbSpline
210
0.0
220
0.0
230
1.0
 70
     8
 71
     3
 72
    25
 73
    21
 74
     0
 42
0.00000001
 43
0.00000001
 40
0.0
 40
0.0
 40
0.0
 40
0.0
 40
0.0000998659434761
 40
0.0499007445260145
 40
0.108081216531499
 40
0.1747628114015044
 40
0.2500213653349785
 40
0.3240831431032844
 40
0.3903787204206599
 40
0.4489899376361998
 40
0.5000404904339619
 40
0.5510073725109859
 40
0.609562221107143
 40
0.6758290344599739
 40
0.7498912975502294
 40
0.825197705914772
 40
0.8919164005633261
 40
0.9501231189183823
 40
0.9999392044404222
 40
1.0
 40
1.0
 40
1.0
 40
1.0
 10
8.720023840809185
 20
3.872848575798329
 30
0.0
 10
8.720023405500164
 20
3.87284955623883
 30
0.0
 10
8.719805891465914
 20
3.873339460096276
 30
0.0
 10
8.720680517421236
 20
3.871529807054869
 30
0.0
 10
8.722555763294599
 20
3.866512099977476
 30
0.0
 10
8.725883117803717
 20
3.855676508957754
 30
0.0
 10
8.730400227406674
 20
3.839153132939249
 30
0.0
 10
8.734908893987754
 20
3.818232699585189
 30
0.0
 10
8.73811533238143
 20
3.795974018694544
 30
0.0
 10
8.740101923770181
 20
3.774745291645138
 30
0.0
 10
8.740861196321259
 20
3.754740216843661
 30
0.0
 10
8.740106541986073
 20
3.734742404480467
 30
0.0
 10
8.738121606548614
 20
3.713533342947726
 30
0.0
 10
8.734916141143762
 20
3.691281180004077
 30
0.0
 10
8.730405775187508
 20
3.670353367592439
 30
0.0
 10
8.725888006205677
 20
3.653817640483709
 30
0.0
 10
8.722558393478058
 20
3.642972905560284
 30
0.0
 10
8.720681988517535
 20
3.637952805562125
 30
0.0
 10
8.719806043752552
 20
3.636142554294304
 30
0.0
 10
8.72002307551882
 20
3.636632238789168
 30
0.0
 10
8.720023340061578
 20
3.636632835671776
 30
0.0
  0
LINE
  5
16B
330
1F
100
AcDbEntity
  8
0
  6
HIDDEN
 62
     7
100
AcDbLine
 10
8.2469475984
 20
4.2484144566
 30
0.0
 11
8.2430218327
 21
4.2482818916
 31
0.0
  0
SPLINE
  5
16C
330
1F
100
AcDbEntity
  8
0
  6
HIDDEN
 62
     7
100
AcDbSpline
210
0.0
220
0.0
230
1.0
 70
     8
 71
     3
 72
    25
 73
    21
 74
     0
 42
0.00000001
 43
0.00000001
 40
0.0
 40
0.0
 40
0.0
 40
0.0
 40
0.0000998659434772
 40
0.0499007445258767
 40
0.1080812165313148
 40
0.1747628114013673
 40
0.2500213653349829
 40
0.3240831431030581
 40
0.3903787204203569
 40
0.4489899376359741
 40
0.5000404904339666
 40
0.551007372510488
 40
0.6095622211064781
 40
0.6758290344594768
 40
0.7498912975502329
 40
0.8251977059152766
 40
0.8919164005639981
 40
0.9501231189188857
 40
0.9999392044404217
 40
1.0
 40
1.0
 40
1.0
 40
1.0
 10
8.128840301169674
 20
4.227817520877242
 30
0.0
 10
8.128839320729174
 20
4.227817085568221
 30
0.0
 10
8.128349416871725
 20
4.227599571533953
 30
0.0
 10
8.130159069913132
 20
4.228474197489287
 30
0.0
 10
8.135176776990509
 20
4.230349443362639
 30
0.0
 10
8.146012368010227
 20
4.233676797871763
 30
0.0
 10
8.162535744028723
 20
4.238193907474724
 30
0.0
 10
8.18345617738276
 20
4.242702574055802
 30
0.0
 10
8.20571485827337
 20
4.245909012449472
 30
0.0
 10
8.2269435853228
 20
4.247895603838224
 30
0.0
 10
8.246948660124252
 20
4.248654876389316
 30
0.0
 10
8.26694647248739
 20
4.247900222054141
 30
0.0
 10
8.28815553402008
 20
4.245915286616682
 30
0.0
 10
8.310407696963807
 20
4.242709821211824
 30
0.0
 10
8.331335509375576
 20
4.238199455255566
 30
0.0
 10
8.34787123648438
 20
4.233681686273727
 30
0.0
 10
8.358715971407797
 20
4.230352073546116
 30
0.0
 10
8.363736071405885
 20
4.228475668585551
 30
0.0
 10
8.365546322673715
 20
4.227599723820663
 30
0.0
 10
8.365056638178835
 20
4.227816755586877
 30
0.0
 10
8.365056041296228
 20
4.227817020129636
 30
0.0
  0
LINE
  5
16D
330
1F
100
AcDbEntity
  8
0
  6
HIDDEN
 62
     7
100
AcDbLine
 10
8.3650578347
 20
3.8728515147
 30
0.0
 11
8.3583029971
 21
3.8660966771
 31
0.0
  0
ARC
  5
16E
330
1F
100
AcDbEntity
  8
0
  6
HIDDEN
 62
     7
100
AcDbCircle
 10
8.2469475984
 20
3.7547412785
 30
0.0
 40
0.3149606299212598
100
AcDbArc
 50
284.4775121859
 51
75.5224878141
  0
LINE
  5
16F
330
1F
100
AcDbEntity
  8
0
  6
HIDDEN
 62
     7
100
AcDbLine
 10
8.3256877559
 20
4.0597005971
 30
0.0
 11
8.3256877559
 21
4.2604590966
 31
0.0
  0
LINE
  5
170
330
1F
100
AcDbEntity
  8
0
  6
HIDDEN
 62
     7
100
AcDbLine
 10
8.3256877559
 20
3.2490234605
 30
0.0
 11
8.3256877559
 21
3.4497819599
 31
0.0
  0
LINE
  5
171
330
1F
100
AcDbEntity
  8
0
  6
HIDDEN
 62
     7
100
AcDbLine
 10
8.168207441
 20
4.0597005971
 30
0.0
 11
8.168207441
 21
4.2604590966
 31
0.0
  0
ARC
  5
172
330
1F
100
AcDbEntity
  8
0
  6
HIDDEN
 62
     7
100
AcDbCircle
 10
8.2469475984
 20
3.7547412785
 30
0.0
 40
0.3149606299212598
100
AcDbArc
 50
104.4775121859
 51
255.5224878141
  0
LINE
  5
173
330
1F
100
AcDbEntity
  8
0
  6
HIDDEN
 62
     7
100
AcDbLine
 10
8.168207441
 20
3.2490234605
 30
0.0
 11
8.168207441
 21
3.4497819599
 31
0.0
  0
LINE
  5
174
330
1F
100
AcDbEntity
  8
0
  6
HIDDEN
 62
     7
100
AcDbLine
 10
8.551906917
 20
3.833481436
 30
0.0
 11
8.7526654165
 21
3.833481436
 31
0.0
  0
LINE
  5
175
330
1F
100
AcDbEntity
  8
0
  6
HIDDEN
 62
     7
100
AcDbLine
 10
8.551906917
 20
3.676001121
 30
0.0
 11
8.7526654165
 21
3.676001121
 31
0.0
  0
ARC
  5
176
330
1F
100
AcDbEntity
  8
0
  6
HIDDEN
 62
     7
100
AcDbCircle
 10
8.2469475984
 20
3.7547412785
 30
0.0
 40
0.3149606299212602
100
AcDbArc
 50
255.5224878141
 51
284.4775121859
  0
ARC
  5
177
330
1F
100
AcDbEntity
  8
0
  6
HIDDEN
 62
     7
100
AcDbCircle
 10
8.2469475984
 20
3.7547412785
 30
0.0
 40
0.3149606299212602
100
AcDbArc
 50
75.5224878141
 51
104.4775121859
  0
LINE
  5
178
330
1F
100
AcDbEntity
  8
0
  6
HIDDEN
 62
     7
100
AcDbLine
 10
7.7412297804
 20
3.676001121
 30
0.0
 11
7.9419882799
 21
3.676001121
 31
0.0
  0
LINE
  5
179
330
1F
100
AcDbEntity
  8
0
  6
HIDDEN
 62
     7
100
AcDbLine
 10
7.7412297804
 20
3.833481436
 30
0.0
 11
7.9419882799
 21
3.833481436
 31
0.0
  0
LINE
  5
17A
330
1F
100
AcDbEntity
  8
0
  6
HIDDEN
 62
     7
100
AcDbLine
 10
8.7387586221
 20
3.6366310423
 30
0.0
 11
8.7387586221
 21
3.8728515147
 31
0.0
  0
LINE
  5
17B
330
1F
100
AcDbEntity
  8
0
  6
HIDDEN
 62
     7
100
AcDbLine
 10
8.4244279134
 20
3.7547412785
 30
0.0
 11
8.4244279134
 21
3.6366310423
 31
0.0
  0
LINE
  5
17C
330
1F
100
AcDbEntity
  8
0
  6
HIDDEN
 62
     7
100
AcDbLine
 10
8.4244279134
 20
3.8728515147
 30
0.0
 11
8.4244279134
 21
3.7547412785
 31
0.0
  0
LINE
  5
17D
330
1F
100
AcDbEntity
  8
0
  6
HIDDEN
 62
     7
100
AcDbLine
 10
8.4044279134
 20
3.7547412785
 30
0.0
 11
8.4044279134
 21
3.8528515147
 31
0.0
  0
LINE
  5
17E
330
1F
100
AcDbEntity
  8
0
  6
HIDDEN
 62
     7
100
AcDbLine
 10
8.4044279134
 20
3.6566310423
 30
0.0
 11
8.4044279134
 21
3.7547412785
 31
0.0
  0
LINE
  5
17F
330
1F
100
AcDbEntity
  8
0
  6
HIDDEN
 62
     7
100
AcDbLine
 10
8.6587586221
 20
3.7206457902
 30
0.0
 11
8.7587586221
 21
3.7206457902
 31
0.0
  0
LINE
  5
180
330
1F
100
AcDbEntity
  8
0
  6
HIDDEN
 62
     7
100
AcDbLine
 10
8.6587586221
 20
3.7888367669
 30
0.0
 11
8.7587586221
 21
3.7888367669
 31
0.0
  0
LINE
  5
181
330
1F
100
AcDbEntity
  8
0
  6
HIDDEN
 62
     7
100
AcDbLine
 10
8.6587586221
 20
3.8229322552
 30
0.0
 11
8.6587586221
 21
3.7888367669
 31
0.0
  0
LINE
  5
182
330
1F
100
AcDbEntity
  8
0
  6
HIDDEN
 62
     7
100
AcDbLine
 10
8.6587586221
 20
3.7888367669
 30
0.0
 11
8.6587586221
 21
3.7206457902
 31
0.0
  0
LINE
  5
183
330
1F
100
AcDbEntity
  8
0
  6
HIDDEN
 62
     7
100
AcDbLine
 10
8.6587586221
 20
3.7206457902
 30
0.0
 11
8.6587586221
 21
3.6865503018
 31
0.0
  0
LINE
  5
184
330
1F
100
AcDbEntity
  8
0
  6
HIDDEN
 62
     7
100
AcDbLine
 10
8.6587586221
 20
3.6865503018
 30
0.0
 11
8.7587586221
 21
3.6865503018
 31
0.0
  0
LINE
  5
185
330
1F
100
AcDbEntity
  8
0
  6
HIDDEN
 62
     7
100
AcDbLine
 10
8.6587586221
 20
3.8229322552
 30
0.0
 11
8.7587586221
 21
3.8229322552
 31
0.0
  0
LINE
  5
186
330
1F
100
AcDbEntity
  8
0
  6
HIDDEN
 62
     7
100
AcDbLine
 10
8.2469475984
 20
3.9122215935
 30
0.0
 11
8.1488373622
 21
3.9122215935
 31
0.0
  0
LINE
  5
187
330
1F
100
AcDbEntity
  8
0
  6
HIDDEN
 62
     7
100
AcDbLine
 10
8.3450578347
 20
3.9122215935
 30
0.0
 11
8.2469475984
 21
3.9122215935
 31
0.0
  0
LINE
  5
188
330
1F
100
AcDbEntity
  8
0
  6
HIDDEN
 62
     7
100
AcDbLine
 10
8.2469475984
 20
3.9322215935
 30
0.0
 11
8.3650578347
 21
3.9322215935
 31
0.0
  0
LINE
  5
189
330
1F
100
AcDbEntity
  8
0
  6
HIDDEN
 62
     7
100
AcDbLine
 10
8.1288373622
 20
3.9322215935
 30
0.0
 11
8.2469475984
 21
3.9322215935
 31
0.0
  0
LINE
  5
18A
330
1F
100
AcDbEntity
  8
0
  6
HIDDEN
 62
     7
100
AcDbLine
 10
8.3650578347
 20
4.2465523021
 30
0.0
 11
8.1288373622
 21
4.2465523021
 31
0.0
  0
LINE
  5
18B
330
1F
100
AcDbEntity
  8
0
  6
HIDDEN
 62
     7
100
AcDbLine
 10
8.2810430868
 20
4.1665523021
 30
0.0
 11
8.3151385751
 21
4.1665523021
 31
0.0
  0
LINE
  5
18C
330
1F
100
AcDbEntity
  8
0
  6
HIDDEN
 62
     7
100
AcDbLine
 10
8.2810430868
 20
4.1665523021
 30
0.0
 11
8.2810430868
 21
4.2665523021
 31
0.0
  0
LINE
  5
18D
330
1F
100
AcDbEntity
  8
0
  6
HIDDEN
 62
     7
100
AcDbLine
 10
8.2128521101
 20
4.1665523021
 30
0.0
 11
8.2810430868
 21
4.1665523021
 31
0.0
  0
LINE
  5
18E
330
1F
100
AcDbEntity
  8
0
  6
HIDDEN
 62
     7
100
AcDbLine
 10
8.2128521101
 20
4.1665523021
 30
0.0
 11
8.2128521101
 21
4.2665523021
 31
0.0
  0
LINE
  5
18F
330
1F
100
AcDbEntity
  8
0
  6
HIDDEN
 62
     7
100
AcDbLine
 10
8.1787566218
 20
4.1665523021
 30
0.0
 11
8.2128521101
 21
4.1665523021
 31
0.0
  0
LINE
  5
190
330
1F
100
AcDbEntity
  8
0
  6
HIDDEN
 62
     7
100
AcDbLine
 10
8.3151385751
 20
4.1665523021
 30
0.0
 11
8.3151385751
 21
4.2665523021
 31
0.0
  0
LINE
  5
191
330
1F
100
AcDbEntity
  8
0
  6
HIDDEN
 62
     7
100
AcDbLine
 10
8.1787566218
 20
4.1665523021
 30
0.0
 11
8.1787566218
 21
4.2665523021
 31
0.0
  0
LINE
  5
192
330
1F
100
AcDbEntity
  8
0
  6
HIDDEN
 62
     7
100
AcDbLine
 10
8.7200225449
 20
3.6366310659
 30
0.0
 11
8.7374035993
 21
3.6084421485
 31
0.0
  0
LINE
  5
193
330
1F
100
AcDbEntity
  8
0
  6
HIDDEN
 62
     7
100
AcDbLine
 10
8.7374035872
 20
3.9010404629
 30
0.0
 11
8.7200225333
 21
3.8728515351
 31
0.0
  0
LINE
  5
194
330
1F
100
AcDbEntity
  8
0
  6
HIDDEN
 62
     7
100
AcDbLine
 10
8.3650578111
 20
4.227816225
 30
0.0
 11
8.3932467285
 21
4.2451972793
 31
0.0
  0
LINE
  5
195
330
1F
100
AcDbEntity
  8
0
  6
HIDDEN
 62
     7
100
AcDbLine
 10
8.1006484141
 20
4.2451972673
 30
0.0
 11
8.1288373419
 21
4.2278162134
 31
0.0
  0
LINE
  5
196
330
1F
100
AcDbEntity
  8
0
  6
HIDDEN
 62
     7
100
AcDbLine
 10
8.3512698118
 20
3.6366310423
 30
0.0
 11
8.7200237122
 21
3.6366310423
 31
0.0
  0
LINE
  5
197
330
1F
100
AcDbEntity
  8
0
  6
HIDDEN
 62
     7
100
AcDbLine
 10
8.7200234559
 20
3.8728515147
 30
0.0
 11
8.3650578347
 21
3.8728515147
 31
0.0
  0
LINE
  5
198
330
1F
100
AcDbEntity
  8
0
  6
HIDDEN
 62
     7
100
AcDbLine
 10
8.3650578347
 20
3.8728515147
 30
0.0
 11
8.3650578347
 21
4.2278173923
 31
0.0
  0
LINE
  5
199
330
1F
100
AcDbEntity
  8
0
  6
HIDDEN
 62
     7
100
AcDbLine
 10
8.1288373622
 20
4.227817136
 30
0.0
 11
8.1288373622
 21
3.8590396191
 31
0.0
  0
LINE
  5
19A
330
1F
100
AcDbEntity
  8
0
  6
HIDDEN
 62
     7
100
AcDbLine
 10
8.4244279134
 20
3.6366310423
 30
0.0
 11
8.7387586221
 21
3.6366310423
 31
0.0
  0
LINE
  5
19B
330
1F
100
AcDbEntity
  8
0
  6
HIDDEN
 62
     7
100
AcDbLine
 10
8.7387586221
 20
3.8728515147
 30
0.0
 11
8.4244279134
 21
3.8728515147
 31
0.0
  0
LINE
  5
19C
330
1F
100
AcDbEntity
  8
0
  6
HIDDEN
 62
     7
100
AcDbLine
 10
8.7387586221
 20
3.6366310423
 30
0.0
 11
8.7467781238
 21
3.644650544
 31
0.0
  0
LINE
  5
19D
330
1F
100
AcDbEntity
  8
0
  6
HIDDEN
 62
     7
100
AcDbLine
 10
8.7467781238
 20
3.864832013
 30
0.0
 11
8.7387586221
 21
3.8728515147
 31
0.0
  0
LINE
  5
19E
330
1F
100
AcDbEntity
  8
0
  6
HIDDEN
 62
     7
100
AcDbLine
 10
8.4244279134
 20
3.8728515147
 30
0.0
 11
8.4044279134
 21
3.8528515147
 31
0.0
  0
LINE
  5
19F
330
1F
100
AcDbEntity
  8
0
  6
HIDDEN
 62
     7
100
AcDbLine
 10
8.4044279134
 20
3.6566310423
 30
0.0
 11
8.4244279134
 21
3.6366310423
 31
0.0
  0
LINE
  5
1A0
330
1F
100
AcDbEntity
  8
0
  6
HIDDEN
 62
     7
100
AcDbLine
 10
8.1288373622
 20
3.9322215935
 30
0.0
 11
8.1488373622
 21
3.9122215935
 31
0.0
  0
LINE
  5
1A1
330
1F
100
AcDbEntity
  8
0
  6
HIDDEN
 62
     7
100
AcDbLine
 10
8.3450578347
 20
3.9122215935
 30
0.0
 11
8.3650578347
 21
3.9322215935
 31
0.0
  0
LINE
  5
1A2
330
1F
100
AcDbEntity
  8
0
  6
HIDDEN
 62
     7
100
AcDbLine
 10
8.3650578347
 20
3.9322215935
 30
0.0
 11
8.3650578347
 21
4.2465523021
 31
0.0
  0
LINE
  5
1A3
330
1F
100
AcDbEntity
  8
0
  6
HIDDEN
 62
     7
100
AcDbLine
 10
8.1288373622
 20
4.2465523021
 30
0.0
 11
8.1288373622
 21
3.9322215935
 31
0.0
  0
LINE
  5
1A4
330
1F
100
AcDbEntity
  8
0
  6
HIDDEN
 62
     7
100
AcDbLine
 10
8.3650578347
 20
4.2465523021
 30
0.0
 11
8.3570383329
 21
4.2545718039
 31
0.0
  0
LINE
  5
1A5
330
1F
100
AcDbEntity
  8
0
  6
HIDDEN
 62
     7
100
AcDbLine
 10
8.136856864
 20
4.2545718039
 30
0.0
 11
8.1288373622
 21
4.2465523021
 31
0.0
  0
LINE
  5
1A6
330
1F
100
AcDbEntity
  8
0
  6
CONTINUOUS
 62
     7
100
AcDbLine
 10
3.7269165422
 20
6.1562291074
 30
0.0
 11
4.1627778357
 21
6.1562291074
 31
0.0
  0
LINE
  5
1A7
330
1F
100
AcDbEntity
  8
0
  6
CONTINUOUS
 62
     7
100
AcDbLine
 10
3.4358034958
 20
6.1562291074
 30
0.0
 11
3.6541382806
 21
6.1562291074
 31
0.0
  0
LINE
  5
1A8
330
1F
100
AcDbEntity
  8
0
  6
CONTINUOUS
 62
     7
100
AcDbLine
 10
3.2902469726
 20
6.1562291074
 30
0.0
 11
3.3630252342
 21
6.1562291074
 31
0.0
  0
LINE
  5
1A9
330
1F
100
AcDbEntity
  8
0
  6
CONTINUOUS
 62
     7
100
AcDbLine
 10
2.9991339262
 20
6.1562291074
 30
0.0
 11
3.217468711
 21
6.1562291074
 31
0.0
  0
LINE
  5
1AA
330
1F
100
AcDbEntity
  8
0
  6
CONTINUOUS
 62
     7
100
AcDbLine
 10
2.4904943711
 20
6.1562291074
 30
0.0
 11
2.9263556646
 21
6.1562291074
 31
0.0
  0
LINE
  5
1AB
330
1F
100
AcDbEntity
  8
0
  6
CONTINUOUS
 62
     7
100
AcDbLine
 10
2.5713483474
 20
7.1798511547
 30
0.0
 11
2.4904943711
 21
7.1798511547
 31
0.0
  0
LINE
  5
1AC
330
1F
100
AcDbEntity
  8
0
  6
CONTINUOUS
 62
     7
100
AcDbLine
 10
2.9263556646
 20
7.1798511547
 30
0.0
 11
2.8535761472
 21
7.1798511547
 31
0.0
  0
LINE
  5
1AD
330
1F
100
AcDbEntity
  8
0
  6
CONTINUOUS
 62
     7
100
AcDbLine
 10
3.217468711
 20
7.1798511547
 30
0.0
 11
2.9991339262
 21
7.1798511547
 31
0.0
  0
LINE
  5
1AE
330
1F
100
AcDbEntity
  8
0
  6
CONTINUOUS
 62
     7
100
AcDbLine
 10
3.3630252342
 20
7.1798511547
 30
0.0
 11
3.2902469726
 21
7.1798511547
 31
0.0
  0
LINE
  5
1AF
330
1F
100
AcDbEntity
  8
0
  6
CONTINUOUS
 62
     7
100
AcDbLine
 10
3.6541382806
 20
7.1798511547
 30
0.0
 11
3.4358034958
 21
7.1798511547
 31
0.0
  0
LINE
  5
1B0
330
1F
100
AcDbEntity
  8
0
  6
CONTINUOUS
 62
     7
100
AcDbLine
 10
3.799694804
 20
7.1798511547
 30
0.0
 11
3.7269165422
 21
7.1798511547
 31
0.0
  0
LINE
  5
1B1
330
1F
100
AcDbEntity
  8
0
  6
CONTINUOUS
 62
     7
100
AcDbLine
 10
4.1627778357
 20
7.1798511547
 30
0.0
 11
4.0819226039
 21
7.1798511547
 31
0.0
  0
LINE
  5
1B2
330
1F
100
AcDbEntity
  8
0
  6
CONTINUOUS
 62
     7
100
AcDbLine
 10
2.4904943711
 20
7.1798511547
 30
0.0
 11
2.4604943711
 21
7.1498511547
 31
0.0
  0
LINE
  5
1B3
330
1F
100
AcDbEntity
  8
0
  6
CONTINUOUS
 62
     7
100
AcDbLine
 10
2.4604943711
 20
6.1862291074
 30
0.0
 11
2.4904943711
 21
6.1562291074
 31
0.0
  0
LINE
  5
1B4
330
1F
100
AcDbEntity
  8
0
  6
CONTINUOUS
 62
     7
100
AcDbLine
 10
4.1627778357
 20
6.1562291074
 30
0.0
 11
4.1927778357
 21
6.1862291074
 31
0.0
  0
LINE
  5
1B5
330
1F
100
AcDbEntity
  8
0
  6
CONTINUOUS
 62
     7
100
AcDbLine
 10
4.1927778357
 20
7.1498511547
 30
0.0
 11
4.1627778357
 21
7.1798511547
 31
0.0
  0
LINE
  5
1B6
330
1F
100
AcDbEntity
  8
0
  6
CONTINUOUS
 62
     7
100
AcDbLine
 10
2.9991339262
 20
6.983000761
 30
0.0
 11
2.9263556646
 21
6.983000761
 31
0.0
  0
LINE
  5
1B7
330
1F
100
AcDbEntity
  8
0
  6
CONTINUOUS
 62
     7
100
AcDbLine
 10
3.2902469726
 20
6.983000761
 30
0.0
 11
3.217468711
 21
6.983000761
 31
0.0
  0
LINE
  5
1B8
330
1F
100
AcDbEntity
  8
0
  6
CONTINUOUS
 62
     7
100
AcDbLine
 10
3.4358034958
 20
6.983000761
 30
0.0
 11
3.3630252342
 21
6.983000761
 31
0.0
  0
LINE
  5
1B9
330
1F
100
AcDbEntity
  8
0
  6
CONTINUOUS
 62
     7
100
AcDbLine
 10
3.7269165422
 20
6.983000761
 30
0.0
 11
3.6541382806
 21
6.983000761
 31
0.0
  0
LINE
  5
1BA
330
1F
100
AcDbEntity
  8
0
  6
CONTINUOUS
 62
     7
100
AcDbLine
 10
2.9263556646
 20
6.3530795011
 30
0.0
 11
2.9991339262
 21
6.3530795011
 31
0.0
  0
LINE
  5
1BB
330
1F
100
AcDbEntity
  8
0
  6
CONTINUOUS
 62
     7
100
AcDbLine
 10
3.3630252342
 20
6.3530795011
 30
0.0
 11
3.4358034958
 21
6.3530795011
 31
0.0
  0
LINE
  5
1BC
330
1F
100
AcDbEntity
  8
0
  6
CONTINUOUS
 62
     7
100
AcDbLine
 10
3.217468711
 20
6.3530795011
 30
0.0
 11
3.2902469726
 21
6.3530795011
 31
0.0
  0
LINE
  5
1BD
330
1F
100
AcDbEntity
  8
0
  6
CONTINUOUS
 62
     7
100
AcDbLine
 10
3.6541382806
 20
6.3530795011
 30
0.0
 11
3.7269165422
 21
6.3530795011
 31
0.0
  0
LINE
  5
1BE
330
1F
100
AcDbEntity
  8
0
  6
CONTINUOUS
 62
     7
100
AcDbLine
 10
4.047829989
 20
7.1709407336
 30
0.0
 11
4.038919568
 21
7.1798511547
 31
0.0
  0
LINE
  5
1BF
330
1F
100
AcDbEntity
  8
0
  6
CONTINUOUS
 62
     7
100
AcDbLine
 10
3.8426990955
 20
7.1798511547
 30
0.0
 11
3.8337895645
 21
7.1709416236
 31
0.0
  0
LINE
  5
1C0
330
1F
100
AcDbEntity
  8
0
  6
CONTINUOUS
 62
     7
100
AcDbLine
 10
2.8194835323
 20
7.1709407336
 30
0.0
 11
2.8105731113
 21
7.1798511547
 31
0.0
  0
LINE
  5
1C1
330
1F
100
AcDbEntity
  8
0
  6
CONTINUOUS
 62
     7
100
AcDbLine
 10
2.6143526388
 20
7.1798511547
 30
0.0
 11
2.6054431078
 21
7.1709416236
 31
0.0
  0
LINE
  5
1C2
330
1F
100
AcDbEntity
  8
0
  6
CONTINUOUS
 62
     7
100
AcDbLine
 10
3.4358034958
 20
6.1562291074
 30
0.0
 11
3.4358034958
 21
6.5892999736
 31
0.0
  0
LINE
  5
1C3
330
1F
100
AcDbEntity
  8
0
  6
CONTINUOUS
 62
     7
100
AcDbLine
 10
3.3630252342
 20
6.5892999736
 30
0.0
 11
3.4358034958
 21
6.5892999736
 31
0.0
  0
LINE
  5
1C4
330
1F
100
AcDbEntity
  8
0
  6
CONTINUOUS
 62
     7
100
AcDbLine
 10
3.3630252342
 20
6.5892999736
 30
0.0
 11
3.3630252342
 21
6.1562291074
 31
0.0
  0
LINE
  5
1C5
330
1F
100
AcDbEntity
  8
0
  6
CONTINUOUS
 62
     7
100
AcDbLine
 10
2.9263556646
 20
6.5892999736
 30
0.0
 11
2.9263556646
 21
6.1562291074
 31
0.0
  0
LINE
  5
1C6
330
1F
100
AcDbEntity
  8
0
  6
CONTINUOUS
 62
     7
100
AcDbLine
 10
2.9991339262
 20
6.1562291074
 30
0.0
 11
2.9991339262
 21
6.5892999736
 31
0.0
  0
LINE
  5
1C7
330
1F
100
AcDbEntity
  8
0
  6
CONTINUOUS
 62
     7
100
AcDbLine
 10
2.9991339262
 20
6.5892999736
 30
0.0
 11
2.9263556646
 21
6.5892999736
 31
0.0
  0
LINE
  5
1C8
330
1F
100
AcDbEntity
  8
0
  6
CONTINUOUS
 62
     7
100
AcDbLine
 10
3.6541382806
 20
6.7467802885
 30
0.0
 11
3.6541382806
 21
7.1798511547
 31
0.0
  0
LINE
  5
1C9
330
1F
100
AcDbEntity
  8
0
  6
CONTINUOUS
 62
     7
100
AcDbLine
 10
3.6541382806
 20
6.7467802885
 30
0.0
 11
3.7269165422
 21
6.7467802885
 31
0.0
  0
LINE
  5
1CA
330
1F
100
AcDbEntity
  8
0
  6
CONTINUOUS
 62
     7
100
AcDbLine
 10
3.7269165422
 20
7.1798511547
 30
0.0
 11
3.7269165422
 21
6.7467802885
 31
0.0
  0
LINE
  5
1CB
330
1F
100
AcDbEntity
  8
0
  6
CONTINUOUS
 62
     7
100
AcDbLine
 10
3.217468711
 20
6.7467802885
 30
0.0
 11
3.217468711
 21
7.1798511547
 31
0.0
  0
LINE
  5
1CC
330
1F
100
AcDbEntity
  8
0
  6
CONTINUOUS
 62
     7
100
AcDbLine
 10
3.2902469726
 20
6.7467802885
 30
0.0
 11
3.217468711
 21
6.7467802885
 31
0.0
  0
LINE
  5
1CD
330
1F
100
AcDbEntity
  8
0
  6
CONTINUOUS
 62
     7
100
AcDbLine
 10
3.2902469726
 20
7.1798511547
 30
0.0
 11
3.2902469726
 21
6.7467802885
 31
0.0
  0
LINE
  5
1CE
330
1F
100
AcDbEntity
  8
0
  6
CONTINUOUS
 62
     7
100
AcDbLine
 10
4.1627778357
 20
6.1562291074
 30
0.0
 11
4.1627778357
 21
7.1798511547
 31
0.0
  0
LINE
  5
1CF
330
1F
100
AcDbEntity
  8
0
  6
CONTINUOUS
 62
     7
100
AcDbLine
 10
2.4904943711
 20
7.1798511547
 30
0.0
 11
2.4904943711
 21
6.1562291074
 31
0.0
  0
SPLINE
  5
1D0
330
1F
100
AcDbEntity
  8
0
  6
CONTINUOUS
 62
     7
100
AcDbSpline
210
0.0
220
0.0
230
1.0
 70
     8
 71
     3
 72
    30
 73
    26
 74
     0
 42
0.00000001
 43
0.00000001
 40
-0.1264836848391853
 40
-0.0838633196148552
 40
-0.0426489210763347
 40
0.0
 40
0.042659631005068
 40
0.0838784842448054
 40
0.1264978582745276
 40
0.1887994881986061
 40
0.2495387339239497
 40
0.2906185775197666
 40
0.3307891411917724
 40
0.3732993863249925
 40
0.4158561970234426
 40
0.4570545054154783
 40
0.4997408974066994
 40
0.5424290890267957
 40
0.5836564515965186
 40
0.6262706366835172
 40
0.6686629149833778
 40
0.7087946518834711
 40
0.7498998876539179
 40
0.7909220832489224
 40
0.8310407576885981
 40
0.8735163151608147
 40
0.9161366803851448
 40
0.9573510789236653
 40
1.0
 40
1.042659631005068
 40
1.083878484244805
 40
1.126497858274528
 10
3.802521940550285
 20
6.629677462084862
 30
0.0
 10
3.798257522724523
 20
6.668043845970176
 30
0.0
 10
3.802519905798346
 20
6.70640880772308
 30
0.0
 10
3.816823780191219
 20
6.742192621403139
 30
0.0
 10
3.843517731854937
 20
6.777227918345246
 30
0.0
 10
3.884554600365205
 20
6.807405546436627
 30
0.0
 10
3.934822970573407
 20
6.816588995041224
 30
0.0
 10
3.977823849500578
 20
6.811407133038275
 30
0.0
 10
4.012505241163117
 20
6.796542723721791
 30
0.0
 10
4.041657365631623
 20
6.772485368775417
 30
0.0
 10
4.064836791564985
 20
6.742201173088702
 30
0.0
 10
4.079098321954981
 20
6.70643404880463
 30
0.0
 10
4.083360936429735
 20
6.668054072748745
 30
0.0
 10
4.079100361157871
 20
6.629663433213156
 30
0.0
 10
4.064818739757202
 20
6.593876184919413
 30
0.0
 10
4.041656945535866
 20
6.5635916057535
 30
0.0
 10
4.012523358865874
 20
6.539554322312665
 30
0.0
 10
3.977893836699092
 20
6.524704009829031
 30
0.0
 10
3.940805696339184
 20
6.520259736871891
 30
0.0
 10
3.903706122781039
 20
6.524635320897709
 30
0.0
 10
3.869086868119137
 20
6.539513617501368
 30
0.0
 10
3.839962968871668
 20
6.563594625566915
 30
0.0
 10
3.816799327540428
 20
6.593904361918712
 30
0.0
 10
3.802521940550285
 20
6.629677462084862
 30
0.0
 10
3.798257522724523
 20
6.668043845970176
 30
0.0
 10
3.802519905798346
 20
6.70640880772308
 30
0.0
  0
SPLINE
  5
1D1
330
1F
100
AcDbEntity
  8
0
  6
CONTINUOUS
 62
     7
100
AcDbSpline
210
0.0
220
0.0
230
1.0
 70
     8
 71
     3
 72
    30
 73
    26
 74
     0
 42
0.00000001
 43
0.00000001
 40
-0.1264836848391795
 40
-0.083863319614826
 40
-0.0426489210763054
 40
0.0
 40
0.0426596310050679
 40
0.0838784842448053
 40
0.1264978582745278
 40
0.1887994881986062
 40
0.2495387339239504
 40
0.2906185775197668
 40
0.3307891411917727
 40
0.3732993863249932
 40
0.4158561970234434
 40
0.4570545054154789
 40
0.4997408974067005
 40
0.5424290890268548
 40
0.5836564515965779
 40
0.6262706366835294
 40
0.6686629149834331
 40
0.7087946518835265
 40
0.7498998876539176
 40
0.7909220832489499
 40
0.8310407576886255
 40
0.8735163151608205
 40
0.916136680385174
 40
0.9573510789236946
 40
1.0
 40
1.042659631005068
 40
1.083878484244805
 40
1.126497858274528
 10
2.574175483857374
 20
6.62967746208488
 30
0.0
 10
2.569911066031609
 20
6.668043845970185
 30
0.0
 10
2.574173449105433
 20
6.70640880772308
 30
0.0
 10
2.588477323498306
 20
6.742192621403139
 30
0.0
 10
2.615171275162023
 20
6.777227918345246
 30
0.0
 10
2.656208143672292
 20
6.807405546436627
 30
0.0
 10
2.706476513880494
 20
6.816588995041224
 30
0.0
 10
2.749477392807665
 20
6.811407133038275
 30
0.0
 10
2.784158784470204
 20
6.796542723721791
 30
0.0
 10
2.81331090893871
 20
6.772485368775417
 30
0.0
 10
2.836490334872071
 20
6.742201173088702
 30
0.0
 10
2.850751865262069
 20
6.706434048804629
 30
0.0
 10
2.85501447973682
 20
6.668054072748728
 30
0.0
 10
2.850753904464963
 20
6.629663433213119
 30
0.0
 10
2.836472283064302
 20
6.593876184919369
 30
0.0
 10
2.813310488842931
 20
6.563591605753478
 30
0.0
 10
2.784176902172915
 20
6.539554322312679
 30
0.0
 10
2.749547380006145
 20
6.524704009829036
 30
0.0
 10
2.712459239646244
 20
6.520259736871889
 30
0.0
 10
2.675359666088108
 20
6.524635320897707
 30
0.0
 10
2.640740411426201
 20
6.539513617501362
 30
0.0
 10
2.611616512178744
 20
6.563594625566926
 30
0.0
 10
2.588452870847521
 20
6.593904361918734
 30
0.0
 10
2.574175483857374
 20
6.62967746208488
 30
0.0
 10
2.569911066031609
 20
6.668043845970185
 30
0.0
 10
2.574173449105433
 20
6.70640880772308
 30
0.0
  0
ARC
  5
1D2
330
1F
100
AcDbEntity
  8
0
  6
CONTINUOUS
 62
     7
100
AcDbCircle
 10
3.9408093641
 20
7.6416385555
 30
0.0
 40
0.4828673965356842
100
AcDbArc
 50
253.0077180299
 51
286.9921181507
  0
ARC
  5
1D3
330
1F
100
AcDbEntity
  8
0
  6
CONTINUOUS
 62
     7
100
AcDbCircle
 10
2.7124629074
 20
7.6416385555
 30
0.0
 40
0.4828673965356297
100
AcDbArc
 50
253.0077180299
 51
286.9921181507
  0
LINE
  5
1D4
330
1F
100
AcDbEntity
  8
0
  6
CONTINUOUS
 62
     7
100
AcDbLine
 10
2.9263556646
 20
6.7467802885
 30
0.0
 11
2.9263556646
 21
7.1798511547
 31
0.0
  0
LINE
  5
1D5
330
1F
100
AcDbEntity
  8
0
  6
CONTINUOUS
 62
     7
100
AcDbLine
 10
2.9263556646
 20
6.7467802885
 30
0.0
 11
2.9991339262
 21
6.7467802885
 31
0.0
  0
LINE
  5
1D6
330
1F
100
AcDbEntity
  8
0
  6
CONTINUOUS
 62
     7
100
AcDbLine
 10
2.9991339262
 20
7.1798511547
 30
0.0
 11
2.9991339262
 21
6.7467802885
 31
0.0
  0
LINE
  5
1D7
330
1F
100
AcDbEntity
  8
0
  6
CONTINUOUS
 62
     7
100
AcDbLine
 10
3.3630252342
 20
6.7467802885
 30
0.0
 11
3.3630252342
 21
7.1798511547
 31
0.0
  0
LINE
  5
1D8
330
1F
100
AcDbEntity
  8
0
  6
CONTINUOUS
 62
     7
100
AcDbLine
 10
3.4358034958
 20
6.7467802885
 30
0.0
 11
3.3630252342
 21
6.7467802885
 31
0.0
  0
LINE
  5
1D9
330
1F
100
AcDbEntity
  8
0
  6
CONTINUOUS
 62
     7
100
AcDbLine
 10
3.4358034958
 20
7.1798511547
 30
0.0
 11
3.4358034958
 21
6.7467802885
 31
0.0
  0
LINE
  5
1DA
330
1F
100
AcDbEntity
  8
0
  6
CONTINUOUS
 62
     7
100
AcDbLine
 10
3.2902469726
 20
6.1562291074
 30
0.0
 11
3.2902469726
 21
6.5892999736
 31
0.0
  0
LINE
  5
1DB
330
1F
100
AcDbEntity
  8
0
  6
CONTINUOUS
 62
     7
100
AcDbLine
 10
3.217468711
 20
6.5892999736
 30
0.0
 11
3.2902469726
 21
6.5892999736
 31
0.0
  0
LINE
  5
1DC
330
1F
100
AcDbEntity
  8
0
  6
CONTINUOUS
 62
     7
100
AcDbLine
 10
3.217468711
 20
6.5892999736
 30
0.0
 11
3.217468711
 21
6.1562291074
 31
0.0
  0
LINE
  5
1DD
330
1F
100
AcDbEntity
  8
0
  6
CONTINUOUS
 62
     7
100
AcDbLine
 10
3.6541382806
 20
6.5892999736
 30
0.0
 11
3.6541382806
 21
6.1562291074
 31
0.0
  0
LINE
  5
1DE
330
1F
100
AcDbEntity
  8
0
  6
CONTINUOUS
 62
     7
100
AcDbLine
 10
3.7269165422
 20
6.1562291074
 30
0.0
 11
3.7269165422
 21
6.5892999736
 31
0.0
  0
LINE
  5
1DF
330
1F
100
AcDbEntity
  8
0
  6
CONTINUOUS
 62
     7
100
AcDbLine
 10
3.7269165422
 20
6.5892999736
 30
0.0
 11
3.6541382806
 21
6.5892999736
 31
0.0
  0
LINE
  5
1E0
330
1F
100
AcDbEntity
  8
0
  6
CONTINUOUS
 62
     7
100
AcDbLine
 10
3.0719121878
 20
7.1737579491
 30
0.0
 11
3.1446904494
 21
7.1737579491
 31
0.0
  0
LINE
  5
1E1
330
1F
100
AcDbEntity
  8
0
  6
CONTINUOUS
 62
     7
100
AcDbLine
 10
3.0719121878
 20
7.1737579491
 30
0.0
 11
3.0719121878
 21
6.162322313
 31
0.0
  0
LINE
  5
1E2
330
1F
100
AcDbEntity
  8
0
  6
CONTINUOUS
 62
     7
100
AcDbLine
 10
3.1446904494
 20
6.162322313
 30
0.0
 11
3.0719121878
 21
6.162322313
 31
0.0
  0
LINE
  5
1E3
330
1F
100
AcDbEntity
  8
0
  6
CONTINUOUS
 62
     7
100
AcDbLine
 10
3.1446904494
 20
6.162322313
 30
0.0
 11
3.1446904494
 21
7.1737579491
 31
0.0
  0
LINE
  5
1E4
330
1F
100
AcDbEntity
  8
0
  6
CONTINUOUS
 62
     7
100
AcDbLine
 10
3.5085817574
 20
7.1737579491
 30
0.0
 11
3.581360019
 21
7.1737579491
 31
0.0
  0
LINE
  5
1E5
330
1F
100
AcDbEntity
  8
0
  6
CONTINUOUS
 62
     7
100
AcDbLine
 10
3.5085817574
 20
7.1737579491
 30
0.0
 11
3.5085817574
 21
6.162322313
 31
0.0
  0
LINE
  5
1E6
330
1F
100
AcDbEntity
  8
0
  6
CONTINUOUS
 62
     7
100
AcDbLine
 10
3.581360019
 20
6.162322313
 30
0.0
 11
3.5085817574
 21
6.162322313
 31
0.0
  0
LINE
  5
1E7
330
1F
100
AcDbEntity
  8
0
  6
CONTINUOUS
 62
     7
100
AcDbLine
 10
3.581360019
 20
6.162322313
 30
0.0
 11
3.581360019
 21
7.1737579491
 31
0.0
  0
SPLINE
  5
1E8
330
1F
100
AcDbEntity
  8
0
  6
CONTINUOUS
 62
     7
100
AcDbSpline
210
0.0
220
0.0
230
1.0
 70
     8
 71
     3
 72
    35
 73
    31
 74
     0
 42
0.00000001
 43
0.00000001
 40
-0.0880685162004993
 40
-0.05486729252343
 40
-0.0255319241883502
 40
0.0
 40
0.0255994389335211
 40
0.0549499880581701
 40
0.0881135804982558
 40
0.1251313763534206
 40
0.1628016719718542
 40
0.1961759499038469
 40
0.2252922782515625
 40
0.2502116766406718
 40
0.2843513798117608
 40
0.3259670240197459
 40
0.3751648357719678
 40
0.4122439766009253
 40
0.4454349574518437
 40
0.4747787518190278
 40
0.5003372881334078
 40
0.5549316157479786
 40
0.6247414720815687
 40
0.6624393134115314
 40
0.6958397531626321
 40
0.7249806604119805
 40
0.7499227474868396
 40
0.7840421883719948
 40
0.8256400510764524
 40
0.8748232011711669
 40
0.9119314837995007
 40
0.94513270747657
 40
0.9744680758116498
 40
1.0
 40
1.025599438933521
 40
1.05494998805817
 40
1.088113580498256
 10
3.823804052334311
 20
6.688040497342868
 30
0.0
 10
3.822183590056049
 20
6.668023269842555
 30
0.0
 10
3.823808495916436
 20
6.64800268230024
 30
0.0
 10
3.829329063827444
 20
6.626771520081697
 30
0.0
 10
3.840098004193123
 20
6.604532517094168
 30
0.0
 10
3.856660808619406
 20
6.583642099232002
 30
0.0
 10
3.877635374676353
 20
6.56709131209515
 30
0.0
 10
3.90006336629006
 20
6.556368508209807
 30
0.0
 10
3.921144840785213
 20
6.550996359496544
 30
0.0
 10
3.943072803990925
 20
6.54925735775353
 30
0.0
 10
3.968139706620313
 20
6.55197019245763
 30
0.0
 10
3.997484531406121
 20
6.562581946826398
 30
0.0
 10
4.023201266963818
 20
6.581412695261561
 30
0.0
 10
4.041529262358805
 20
6.604545467119241
 30
0.0
 10
4.052304664346586
 20
6.626807199913499
 30
0.0
 10
4.057813553688527
 20
6.648038991375912
 30
0.0
 10
4.060024857765696
 20
6.67526027634538
 30
0.0
 10
4.053505206429564
 20
6.712720179991289
 30
0.0
 10
4.031328671027801
 20
6.747439408244037
 30
0.0
 10
4.004012624084323
 20
6.768965327067955
 30
0.0
 10
3.981563408275642
 20
6.779711896397627
 30
0.0
 10
3.960465221959715
 20
6.78508594530068
 30
0.0
 10
3.938530112126691
 20
6.786822767738413
 30
0.0
 10
3.913467438084423
 20
6.784106143542584
 30
0.0
 10
3.884135716203243
 20
6.773497846074459
 30
0.0
 10
3.858419479425717
 20
6.754669834940608
 30
0.0
 10
3.840087098843799
 20
6.731533613283792
 30
0.0
 10
3.829310912756384
 20
6.709262870961681
 30
0.0
 10
3.823804052334311
 20
6.688040497342868
 30
0.0
 10
3.822183590056049
 20
6.668023269842555
 30
0.0
 10
3.823808495916436
 20
6.64800268230024
 30
0.0
  0
SPLINE
  5
1E9
330
1F
100
AcDbEntity
  8
0
  6
CONTINUOUS
 62
     7
100
AcDbSpline
210
0.0
220
0.0
230
1.0
 70
     8
 71
     3
 72
    35
 73
    31
 74
     0
 42
0.00000001
 43
0.00000001
 40
-0.0880685162004575
 40
-0.0548672925233742
 40
-0.0255319241883083
 40
0.0
 40
0.0255994389335005
 40
0.0549499880581427
 40
0.0881135804982352
 40
0.1251313763534207
 40
0.1628016719720581
 40
0.1961759499041188
 40
0.2252922782517666
 40
0.2502116766406734
 40
0.2843513798118769
 40
0.3259670240198621
 40
0.3751648357719676
 40
0.4122439766010081
 40
0.4454349574519545
 40
0.4747787518191107
 40
0.5003372881334067
 40
0.5549316157479782
 40
0.6247414720815686
 40
0.6624393134114404
 40
0.6958397531625107
 40
0.7249806604118899
 40
0.7499227474868401
 40
0.7840421883718378
 40
0.8256400510762958
 40
0.8748232011711673
 40
0.9119314837995425
 40
0.9451327074766258
 40
0.9744680758116917
 40
1.0
 40
1.025599438933501
 40
1.054949988058143
 40
1.088113580498235
 10
2.595457595641395
 20
6.688040497342844
 30
0.0
 10
2.593837133363137
 20
6.66802326984255
 30
0.0
 10
2.595462039223522
 20
6.648002682300252
 30
0.0
 10
2.600982607134524
 20
6.626771520081713
 30
0.0
 10
2.611751547500202
 20
6.604532517094178
 30
0.0
 10
2.62831435192652
 20
6.583642099231966
 30
0.0
 10
2.649288917983536
 20
6.567091312095081
 30
0.0
 10
2.671716909597305
 20
6.556368508209748
 30
0.0
 10
2.692798384092416
 20
6.55099635949653
 30
0.0
 10
2.71472634729809
 20
6.549257357753532
 30
0.0
 10
2.739793249927455
 20
6.55197019245764
 30
0.0
 10
2.769138074713255
 20
6.562581946826428
 30
0.0
 10
2.794854810270938
 20
6.581412695261595
 30
0.0
 10
2.81318280566592
 20
6.604545467119281
 30
0.0
 10
2.823958207653698
 20
6.626807199913565
 30
0.0
 10
2.829467096995619
 20
6.648038991375961
 30
0.0
 10
2.831678401072779
 20
6.6752602763454
 30
0.0
 10
2.82515874973665
 20
6.712720179991289
 30
0.0
 10
2.8029822143349
 20
6.747439408244016
 30
0.0
 10
2.775666167391454
 20
6.768965327067923
 30
0.0
 10
2.7532169515828
 20
6.7797118963976
 30
0.0
 10
2.732118765266855
 20
6.785085945300674
 30
0.0
 10
2.710183655433839
 20
6.786822767738411
 30
0.0
 10
2.685120981391588
 20
6.784106143542598
 30
0.0
 10
2.655789259510398
 20
6.773497846074502
 30
0.0
 10
2.630073022732819
 20
6.754669834940634
 30
0.0
 10
2.61174064215087
 20
6.731533613283772
 30
0.0
 10
2.600964456063458
 20
6.709262870961648
 30
0.0
 10
2.595457595641395
 20
6.688040497342844
 30
0.0
 10
2.593837133363137
 20
6.66802326984255
 30
0.0
 10
2.595462039223522
 20
6.648002682300252
 30
0.0
  0
LINE
  5
1EA
330
1F
100
AcDbEntity
  8
0
  6
CONTINUOUS
 62
     7
100
AcDbLine
 10
2.4604943711
 20
6.1862291074
 30
0.0
 11
2.4604943711
 21
7.1498511547
 31
0.0
  0
LINE
  5
1EB
330
1F
100
AcDbEntity
  8
0
  6
CONTINUOUS
 62
     7
100
AcDbLine
 10
4.1927778357
 20
7.1498511547
 30
0.0
 11
4.1927778357
 21
6.1862291074
 31
0.0
  0
LINE
  5
1EC
330
1F
100
AcDbEntity
  8
0
  6
CONTINUOUS
 62
     7
100
AcDbLine
 10
3.1446904494
 20
6.9729994496
 30
0.0
 11
3.0719121878
 21
6.9729994496
 31
0.0
  0
LINE
  5
1ED
330
1F
100
AcDbEntity
  8
0
  6
CONTINUOUS
 62
     7
100
AcDbLine
 10
3.0719121878
 20
6.3630808124
 30
0.0
 11
3.1446904494
 21
6.3630808124
 31
0.0
  0
LINE
  5
1EE
330
1F
100
AcDbEntity
  8
0
  6
CONTINUOUS
 62
     7
100
AcDbLine
 10
3.581360019
 20
6.9729994496
 30
0.0
 11
3.5085817574
 21
6.9729994496
 31
0.0
  0
LINE
  5
1EF
330
1F
100
AcDbEntity
  8
0
  6
CONTINUOUS
 62
     7
100
AcDbLine
 10
3.5085817574
 20
6.3630808124
 30
0.0
 11
3.581360019
 21
6.3630808124
 31
0.0
  0
LINE
  5
1F0
330
1F
100
AcDbEntity
  8
0
  6
CONTINUOUS
 62
     7
100
AcDbLine
 10
3.8426990955
 20
7.1798511547
 30
0.0
 11
4.038919568
 21
7.1798511547
 31
0.0
  0
LINE
  5
1F1
330
1F
100
AcDbEntity
  8
0
  6
CONTINUOUS
 62
     7
100
AcDbLine
 10
2.8105731113
 20
7.1798511547
 30
0.0
 11
2.6143526388
 21
7.1798511547
 31
0.0
  0
CIRCLE
  5
1F2
330
1F
100
AcDbEntity
  8
0
  6
CONTINUOUS
 62
     7
100
AcDbCircle
 10
3.9408093317
 20
6.668040131
 30
0.0
 40
0.0981102362204727
  0
LINE
  5
1F3
330
1F
100
AcDbEntity
  8
0
  6
CONTINUOUS
 62
     7
100
AcDbLine
 10
3.9408093317
 20
6.7362311077
 30
0.0
 11
3.8817542136
 21
6.7021356194
 31
0.0
  0
LINE
  5
1F4
330
1F
100
AcDbEntity
  8
0
  6
CONTINUOUS
 62
     7
100
AcDbLine
 10
3.8817542136
 20
6.7021356194
 30
0.0
 11
3.8817542136
 21
6.6339446427
 31
0.0
  0
LINE
  5
1F5
330
1F
100
AcDbEntity
  8
0
  6
CONTINUOUS
 62
     7
100
AcDbLine
 10
3.8817542136
 20
6.6339446427
 30
0.0
 11
3.9408093317
 21
6.5998491544
 31
0.0
  0
LINE
  5
1F6
330
1F
100
AcDbEntity
  8
0
  6
CONTINUOUS
 62
     7
100
AcDbLine
 10
3.9408093317
 20
6.5998491544
 30
0.0
 11
3.9998644498
 21
6.6339446427
 31
0.0
  0
LINE
  5
1F7
330
1F
100
AcDbEntity
  8
0
  6
CONTINUOUS
 62
     7
100
AcDbLine
 10
3.9998644498
 20
6.6339446427
 30
0.0
 11
3.9998644498
 21
6.7021356194
 31
0.0
  0
LINE
  5
1F8
330
1F
100
AcDbEntity
  8
0
  6
CONTINUOUS
 62
     7
100
AcDbLine
 10
3.9998644498
 20
6.7021356194
 30
0.0
 11
3.9408093317
 21
6.7362311077
 31
0.0
  0
CIRCLE
  5
1F9
330
1F
100
AcDbEntity
  8
0
  6
CONTINUOUS
 62
     7
100
AcDbCircle
 10
3.9408093317
 20
6.668040131
 30
0.0
 40
0.1181102362204731
  0
CIRCLE
  5
1FA
330
1F
100
AcDbEntity
  8
0
  6
CONTINUOUS
 62
     7
100
AcDbCircle
 10
2.712462875
 20
6.668040131
 30
0.0
 40
0.0981102362204727
  0
LINE
  5
1FB
330
1F
100
AcDbEntity
  8
0
  6
CONTINUOUS
 62
     7
100
AcDbLine
 10
2.6534077569
 20
6.6339446427
 30
0.0
 11
2.6534077569
 21
6.7021356194
 31
0.0
  0
LINE
  5
1FC
330
1F
100
AcDbEntity
  8
0
  6
CONTINUOUS
 62
     7
100
AcDbLine
 10
2.712462875
 20
6.5998491544
 30
0.0
 11
2.6534077569
 21
6.6339446427
 31
0.0
  0
LINE
  5
1FD
330
1F
100
AcDbEntity
  8
0
  6
CONTINUOUS
 62
     7
100
AcDbLine
 10
2.7715179931
 20
6.6339446427
 30
0.0
 11
2.712462875
 21
6.5998491544
 31
0.0
  0
LINE
  5
1FE
330
1F
100
AcDbEntity
  8
0
  6
CONTINUOUS
 62
     7
100
AcDbLine
 10
2.7715179931
 20
6.7021356194
 30
0.0
 11
2.7715179931
 21
6.6339446427
 31
0.0
  0
LINE
  5
1FF
330
1F
100
AcDbEntity
  8
0
  6
CONTINUOUS
 62
     7
100
AcDbLine
 10
2.712462875
 20
6.7362311077
 30
0.0
 11
2.7715179931
 21
6.7021356194
 31
0.0
  0
LINE
  5
200
330
1F
100
AcDbEntity
  8
0
  6
CONTINUOUS
 62
     7
100
AcDbLine
 10
2.6534077569
 20
6.7021356194
 30
0.0
 11
2.712462875
 21
6.7362311077
 31
0.0
  0
CIRCLE
  5
201
330
1F
100
AcDbEntity
  8
0
  6
CONTINUOUS
 62
     7
100
AcDbCircle
 10
2.712462875
 20
6.668040131
 30
0.0
 40
0.1181102362204731
  0
SPLINE
  5
202
330
1F
100
AcDbEntity
  8
0
  6
HIDDEN
 62
     7
100
AcDbSpline
210
0.0
220
0.0
230
1.0
 70
     8
 71
     3
 72
    14
 73
    10
 74
     0
 42
0.00000001
 43
0.00000001
 40
0.0
 40
0.0
 40
0.0
 40
0.0
 40
0.25
 40
0.25
 40
0.5
 40
0.5
 40
0.75
 40
0.75
 40
1.0
 40
1.0
 40
1.0
 40
1.0
 10
3.901439252990851
 20
6.779395529654465
 30
0.0
 10
3.890018367318294
 20
6.783433422507576
 30
0.0
 10
3.879490842412259
 20
6.788666176443611
 30
0.0
 10
3.860877555958204
 20
6.799111769755721
 30
0.0
 10
3.852495290343835
 20
6.804505584337149
 30
0.0
 10
3.838521884802223
 20
6.813937944034971
 30
0.0
 10
3.832817300932093
 20
6.818056550361479
 30
0.0
 10
3.824843128680527
 20
6.823895216295303
 30
0.0
 10
3.822699095510536
 20
6.825520446003041
 30
0.0
 10
3.822699095510536
 20
6.825520446003041
 30
0.0
  0
SPLINE
  5
203
330
1F
100
AcDbEntity
  8
0
  6
HIDDEN
 62
     7
100
AcDbSpline
210
0.0
220
0.0
230
1.0
 70
     8
 71
     3
 72
    13
 73
     9
 74
     0
 42
0.00000001
 43
0.00000001
 40
0.0
 40
0.0
 40
0.0
 40
0.0
 40
0.1664815758141185
 40
0.3455029527685315
 40
0.5206110373003078
 40
0.7021461508892711
 40
0.8599126310289477
 40
1.0
 40
1.0
 40
1.0
 40
1.0
 10
3.900783174847753
 20
6.779662467214457
 30
0.0
 10
3.905007738919151
 20
6.778249494608029
 30
0.0
 10
3.913775071602602
 20
6.775317120828438
 30
0.0
 10
3.928003981248213
 20
6.772661756996685
 30
0.0
 10
3.943032020704574
 20
6.771853455108101
 30
0.0
 10
3.957388899933306
 20
6.773232310919947
 30
0.0
 10
3.970321930341313
 20
6.776049063470325
 30
0.0
 10
3.977815479015236
 20
6.778654043712485
 30
0.0
 10
3.981339863612315
 20
6.779879224550117
 30
0.0
  0
SPLINE
  5
204
330
1F
100
AcDbEntity
  8
0
  6
HIDDEN
 62
     7
100
AcDbSpline
210
0.0
220
0.0
230
1.0
 70
     8
 71
     3
 72
    16
 73
    12
 74
     0
 42
0.00000001
 43
0.00000001
 40
0.0
 40
0.0
 40
0.0
 40
0.0
 40
0.060922000059438
 40
0.1645425766162345
 40
0.2709955939115531
 40
0.378599718295698
 40
0.4885215112069254
 40
0.6142974225907851
 40
0.7426768485112114
 40
0.8699109050049967
 40
1.0
 40
1.0
 40
1.0
 40
1.0
 10
4.05856688218098
 20
6.825256105189088
 30
0.0
 10
4.058633850162772
 20
6.825306247217433
 30
0.0
 10
4.058814722167369
 20
6.825441674460996
 30
0.0
 10
4.056479783988654
 20
6.823693338941553
 30
0.0
 10
4.052121156801911
 20
6.820473576224563
 30
0.0
 10
4.045616571457268
 20
6.815774409681769
 30
0.0
 10
4.036942687298685
 20
6.80972808999238
 30
0.0
 10
4.025924643010924
 20
6.802433737230987
 30
0.0
 10
4.012558318226354
 20
6.794376536621455
 30
0.0
 10
3.997464179368489
 20
6.786220532281035
 30
0.0
 10
3.98598346019716
 20
6.781687296172141
 30
0.0
 10
3.980179410471167
 20
6.779395529654465
 30
0.0
  0
SPLINE
  5
205
330
1F
100
AcDbEntity
  8
0
  6
HIDDEN
 62
     7
100
AcDbSpline
210
0.0
220
0.0
230
1.0
 70
     8
 71
     3
 72
    14
 73
    10
 74
     0
 42
0.00000001
 43
0.00000001
 40
0.0
 40
0.0
 40
0.0
 40
0.0
 40
0.25
 40
0.25
 40
0.5
 40
0.5
 40
0.75
 40
0.75
 40
1.0
 40
1.0
 40
1.0
 40
1.0
 10
2.673092796297938
 20
6.779395529654465
 30
0.0
 10
2.661671910625381
 20
6.783433422507576
 30
0.0
 10
2.651144385719345
 20
6.788666176443611
 30
0.0
 10
2.632531099265291
 20
6.799111769755721
 30
0.0
 10
2.624148833650922
 20
6.804505584337149
 30
0.0
 10
2.61017542810931
 20
6.813937944034971
 30
0.0
 10
2.60447084423918
 20
6.818056550361479
 30
0.0
 10
2.596496671987613
 20
6.823895216295303
 30
0.0
 10
2.594352638817623
 20
6.825520446003041
 30
0.0
 10
2.594352638817623
 20
6.825520446003041
 30
0.0
  0
SPLINE
  5
206
330
1F
100
AcDbEntity
  8
0
  6
HIDDEN
 62
     7
100
AcDbSpline
210
0.0
220
0.0
230
1.0
 70
     8
 71
     3
 72
    13
 73
     9
 74
     0
 42
0.00000001
 43
0.00000001
 40
0.0
 40
0.0
 40
0.0
 40
0.0
 40
0.1664815758141381
 40
0.3455029527685385
 40
0.5206110373003018
 40
0.7021461508892517
 40
0.8599126310289213
 40
1.0
 40
1.0
 40
1.0
 40
1.0
 10
2.672436718154838
 20
6.779662467214457
 30
0.0
 10
2.676661282226236
 20
6.778249494608029
 30
0.0
 10
2.685428614909688
 20
6.775317120828438
 30
0.0
 10
2.6996575245553
 20
6.772661756996685
 30
0.0
 10
2.714685564011661
 20
6.771853455108101
 30
0.0
 10
2.729042443240393
 20
6.773232310919947
 30
0.0
 10
2.741975473648401
 20
6.776049063470326
 30
0.0
 10
2.749469022322325
 20
6.778654043712485
 30
0.0
 10
2.752993406919404
 20
6.779879224550118
 30
0.0
  0
SPLINE
  5
207
330
1F
100
AcDbEntity
  8
0
  6
HIDDEN
 62
     7
100
AcDbSpline
210
0.0
220
0.0
230
1.0
 70
     8
 71
     3
 72
    16
 73
    12
 74
     0
 42
0.00000001
 43
0.00000001
 40
0.0
 40
0.0
 40
0.0
 40
0.0
 40
0.0609220000594429
 40
0.1645425766162391
 40
0.2709955939115574
 40
0.3785997182957025
 40
0.4885215112069293
 40
0.6142974225907889
 40
0.7426768485112156
 40
0.8699109050049985
 40
0.9999999999999999
 40
0.9999999999999999
 40
0.9999999999999999
 40
0.9999999999999999
 10
2.830220425488066
 20
6.825256105189088
 30
0.0
 10
2.830287393469858
 20
6.825306247217433
 30
0.0
 10
2.830468265474456
 20
6.825441674460996
 30
0.0
 10
2.828133327295741
 20
6.823693338941553
 30
0.0
 10
2.823774700108997
 20
6.820473576224563
 30
0.0
 10
2.817270114764355
 20
6.815774409681769
 30
0.0
 10
2.808596230605772
 20
6.80972808999238
 30
0.0
 10
2.79757818631801
 20
6.802433737230987
 30
0.0
 10
2.78421186153344
 20
6.794376536621455
 30
0.0
 10
2.769117722675575
 20
6.786220532281035
 30
0.0
 10
2.757637003504246
 20
6.781687296172141
 30
0.0
 10
2.751832953778254
 20
6.779395529654465
 30
0.0
  0
SPLINE
  5
208
330
1F
100
AcDbEntity
  8
0
  6
HIDDEN
 62
     7
100
AcDbSpline
210
0.0
220
0.0
230
1.0
 70
     8
 71
     3
 72
    24
 73
    20
 74
     0
 42
0.00000001
 43
0.00000001
 40
0.0
 40
0.0
 40
0.0
 40
0.0
 40
0.0511452695412808
 40
0.1097849041857709
 40
0.1760426404866248
 40
0.2500007124488935
 40
0.3252624175243495
 40
0.3919410836081408
 40
0.4501127671853786
 40
0.4998993797249181
 40
0.5497129373080918
 40
0.6079082217077049
 40
0.6746067933059885
 40
0.7498845076093252
 40
0.823965141055565
 40
0.8902775968234987
 40
0.9489037360982764
 40
0.9999672860561244
 40
1.0
 40
1.0
 40
1.0
 40
1.0
 10
3.822699095510536
 20
7.161713309138404
 30
0.0
 10
3.823000626490034
 20
7.161571333108862
 30
0.0
 10
3.823647872070909
 20
7.161266577166821
 30
0.0
 10
3.829380972359005
 20
7.15918169435539
 30
0.0
 10
3.840081488933091
 20
7.156008511915115
 30
0.0
 10
3.85666557605982
 20
7.15149538920111
 30
0.0
 10
3.877634145227752
 20
7.146964023333422
 30
0.0
 10
3.900063939058717
 20
7.143685892347447
 30
0.0
 10
3.921143801755929
 20
7.141654170123314
 30
0.0
 10
3.940786324751695
 20
7.140866084420503
 30
0.0
 10
3.96043220449437
 20
7.141655741731374
 30
0.0
 10
3.981523306432325
 20
7.143687236892215
 30
0.0
 10
4.003959188097659
 20
7.146962294674778
 30
0.0
 10
4.024962772247767
 20
7.151499593656921
 30
0.0
 10
4.041504571262038
 20
7.155988932123065
 30
0.0
 10
4.052391672808369
 20
7.159244692567179
 30
0.0
 10
4.057542674183425
 20
7.161081215252135
 30
0.0
 10
4.059431041142778
 20
7.161925288781228
 30
0.0
 10
4.058918912195171
 20
7.161713037412967
 30
0.0
 10
4.058918584309014
 20
7.161712901520852
 30
0.0
  0
SPLINE
  5
209
330
1F
100
AcDbEntity
  8
0
  6
HIDDEN
 62
     7
100
AcDbSpline
210
0.0
220
0.0
230
1.0
 70
     8
 71
     3
 72
    24
 73
    20
 74
     0
 42
0.00000001
 43
0.00000001
 40
0.0
 40
0.0
 40
0.0
 40
0.0
 40
0.0511452695412385
 40
0.1097849041857154
 40
0.1760426404865838
 40
0.2500007124488948
 40
0.3252624175243929
 40
0.3919410836081991
 40
0.4501127671854229
 40
0.4998993797249206
 40
0.5497129373079662
 40
0.6079082217075372
 40
0.6746067933058634
 40
0.7498845076093266
 40
0.8239651410556892
 40
0.8902775968236647
 40
0.9489037360984012
 40
0.9999672860561241
 40
1.0
 40
1.0
 40
1.0
 40
1.0
 10
2.594352638817623
 20
7.161713309138404
 30
0.0
 10
2.59465416979712
 20
7.161571333108862
 30
0.0
 10
2.595301415377994
 20
7.161266577166821
 30
0.0
 10
2.601034515666086
 20
7.15918169435539
 30
0.0
 10
2.611735032240169
 20
7.156008511915114
 30
0.0
 10
2.628319119366906
 20
7.151495389201111
 30
0.0
 10
2.649287688534849
 20
7.146964023333423
 30
0.0
 10
2.671717482365821
 20
7.143685892347448
 30
0.0
 10
2.692797345063028
 20
7.141654170123314
 30
0.0
 10
2.712439868058771
 20
7.140866084420503
 30
0.0
 10
2.73208574780142
 20
7.141655741731376
 30
0.0
 10
2.753176849739361
 20
7.143687236892218
 30
0.0
 10
2.775612731404715
 20
7.146962294674781
 30
0.0
 10
2.796616315554854
 20
7.151499593656921
 30
0.0
 10
2.813158114569153
 20
7.155988932123065
 30
0.0
 10
2.824045216115452
 20
7.159244692567172
 30
0.0
 10
2.829196217490585
 20
7.161081215252156
 30
0.0
 10
2.831084584449735
 20
7.161925288781188
 30
0.0
 10
2.830572455502258
 20
7.161713037412967
 30
0.0
 10
2.8305721276161
 20
7.161712901520852
 30
0.0
  0
LINE
  5
20A
330
1F
100
AcDbEntity
  8
0
  6
HIDDEN
 62
     7
100
AcDbLine
 10
4.058919568
 20
7.1598511547
 30
0.0
 11
3.9754750756
 21
7.1598511547
 31
0.0
  0
LINE
  5
20B
330
1F
100
AcDbEntity
  8
0
  6
HIDDEN
 62
     7
100
AcDbLine
 10
3.906055016
 20
7.1598511547
 30
0.0
 11
3.8226990955
 21
7.1598511547
 31
0.0
  0
LINE
  5
20C
330
1F
100
AcDbEntity
  8
0
  6
HIDDEN
 62
     7
100
AcDbLine
 10
3.8226990955
 20
6.845520446
 30
0.0
 11
4.058919568
 21
6.845520446
 31
0.0
  0
LINE
  5
20D
330
1F
100
AcDbEntity
  8
0
  6
HIDDEN
 62
     7
100
AcDbLine
 10
4.038919568
 20
6.825520446
 30
0.0
 11
3.8426990955
 21
6.825520446
 31
0.0
  0
LINE
  5
20E
330
1F
100
AcDbEntity
  8
0
  6
HIDDEN
 62
     7
100
AcDbLine
 10
3.9408093317
 20
7.0798511547
 30
0.0
 11
3.9408093317
 21
7.1798511547
 31
0.0
  0
LINE
  5
20F
330
1F
100
AcDbEntity
  8
0
  6
HIDDEN
 62
     7
100
AcDbLine
 10
3.9408093317
 20
7.0798511547
 30
0.0
 11
3.9998644498
 21
7.0798511547
 31
0.0
  0
LINE
  5
210
330
1F
100
AcDbEntity
  8
0
  6
HIDDEN
 62
     7
100
AcDbLine
 10
3.8817542136
 20
7.0798511547
 30
0.0
 11
3.9408093317
 21
7.0798511547
 31
0.0
  0
LINE
  5
211
330
1F
100
AcDbEntity
  8
0
  6
HIDDEN
 62
     7
100
AcDbLine
 10
3.8817542136
 20
7.0798511547
 30
0.0
 11
3.8817542136
 21
7.1798511547
 31
0.0
  0
LINE
  5
212
330
1F
100
AcDbEntity
  8
0
  6
HIDDEN
 62
     7
100
AcDbLine
 10
3.9998644498
 20
7.0798511547
 30
0.0
 11
3.9998644498
 21
7.1798511547
 31
0.0
  0
LINE
  5
213
330
1F
100
AcDbEntity
  8
0
  6
HIDDEN
 62
     7
100
AcDbLine
 10
2.5943526388
 20
7.1598511547
 30
0.0
 11
2.6776174923
 21
7.1598511547
 31
0.0
  0
LINE
  5
214
330
1F
100
AcDbEntity
  8
0
  6
HIDDEN
 62
     7
100
AcDbLine
 10
2.7470391408
 20
7.1598511547
 30
0.0
 11
2.8305731113
 21
7.1598511547
 31
0.0
  0
LINE
  5
215
330
1F
100
AcDbEntity
  8
0
  6
HIDDEN
 62
     7
100
AcDbLine
 10
2.8305731113
 20
6.845520446
 30
0.0
 11
2.5943526388
 21
6.845520446
 31
0.0
  0
LINE
  5
216
330
1F
100
AcDbEntity
  8
0
  6
HIDDEN
 62
     7
100
AcDbLine
 10
2.6143526388
 20
6.825520446
 30
0.0
 11
2.8105731113
 21
6.825520446
 31
0.0
  0
LINE
  5
217
330
1F
100
AcDbEntity
  8
0
  6
HIDDEN
 62
     7
100
AcDbLine
 10
2.712462875
 20
7.0798511547
 30
0.0
 11
2.712462875
 21
7.1798511547
 31
0.0
  0
LINE
  5
218
330
1F
100
AcDbEntity
  8
0
  6
HIDDEN
 62
     7
100
AcDbLine
 10
2.7715179931
 20
7.0798511547
 30
0.0
 11
2.712462875
 21
7.0798511547
 31
0.0
  0
LINE
  5
219
330
1F
100
AcDbEntity
  8
0
  6
HIDDEN
 62
     7
100
AcDbLine
 10
2.712462875
 20
7.0798511547
 30
0.0
 11
2.6534077569
 21
7.0798511547
 31
0.0
  0
LINE
  5
21A
330
1F
100
AcDbEntity
  8
0
  6
HIDDEN
 62
     7
100
AcDbLine
 10
2.7715179931
 20
7.0798511547
 30
0.0
 11
2.7715179931
 21
7.1798511547
 31
0.0
  0
LINE
  5
21B
330
1F
100
AcDbEntity
  8
0
  6
HIDDEN
 62
     7
100
AcDbLine
 10
2.6534077569
 20
7.0798511547
 30
0.0
 11
2.6534077569
 21
7.1798511547
 31
0.0
  0
LINE
  5
21C
330
1F
100
AcDbEntity
  8
0
  6
HIDDEN
 62
     7
100
AcDbLine
 10
4.1927778357
 20
6.855520446
 30
0.0
 11
4.1627778357
 21
6.825520446
 31
0.0
  0
LINE
  5
21D
330
1F
100
AcDbEntity
  8
0
  6
HIDDEN
 62
     7
100
AcDbLine
 10
4.1627778357
 20
6.5105598161
 30
0.0
 11
4.1927778357
 21
6.4805598161
 31
0.0
  0
LINE
  5
21E
330
1F
100
AcDbEntity
  8
0
  6
HIDDEN
 62
     7
100
AcDbLine
 10
2.4604943711
 20
6.4805598161
 30
0.0
 11
2.4904943711
 21
6.5105598161
 31
0.0
  0
LINE
  5
21F
330
1F
100
AcDbEntity
  8
0
  6
HIDDEN
 62
     7
100
AcDbLine
 10
2.4904943711
 20
6.825520446
 30
0.0
 11
2.4604943711
 21
6.855520446
 31
0.0
  0
LINE
  5
220
330
1F
100
AcDbEntity
  8
0
  6
HIDDEN
 62
     7
100
AcDbLine
 10
2.5943526388
 20
6.825520446
 30
0.0
 11
2.4904943711
 21
6.825520446
 31
0.0
  0
LINE
  5
221
330
1F
100
AcDbEntity
  8
0
  6
HIDDEN
 62
     7
100
AcDbLine
 10
3.8226990955
 20
6.825520446
 30
0.0
 11
2.8302204255
 21
6.825520446
 31
0.0
  0
LINE
  5
222
330
1F
100
AcDbEntity
  8
0
  6
HIDDEN
 62
     7
100
AcDbLine
 10
4.1627778357
 20
6.825520446
 30
0.0
 11
4.0585668822
 21
6.825520446
 31
0.0
  0
LINE
  5
223
330
1F
100
AcDbEntity
  8
0
  6
HIDDEN
 62
     7
100
AcDbLine
 10
2.4904943711
 20
6.5105598161
 30
0.0
 11
4.1627778357
 21
6.5105598161
 31
0.0
  0
LINE
  5
224
330
1F
100
AcDbEntity
  8
0
  6
HIDDEN
 62
     7
100
AcDbLine
 10
4.0589195685
 20
7.1617133085
 30
0.0
 11
4.0819238602
 21
7.1798511541
 31
0.0
  0
LINE
  5
225
330
1F
100
AcDbEntity
  8
0
  6
HIDDEN
 62
     7
100
AcDbLine
 10
3.7996947886
 20
7.1798511571
 30
0.0
 11
3.8226990826
 21
7.1617133114
 31
0.0
  0
LINE
  5
226
330
1F
100
AcDbEntity
  8
0
  6
HIDDEN
 62
     7
100
AcDbLine
 10
2.8305731119
 20
7.1617133085
 30
0.0
 11
2.8535774035
 21
7.1798511541
 31
0.0
  0
LINE
  5
227
330
1F
100
AcDbEntity
  8
0
  6
HIDDEN
 62
     7
100
AcDbLine
 10
2.5713483319
 20
7.1798511571
 30
0.0
 11
2.5943526259
 21
7.1617133114
 31
0.0
  0
LINE
  5
228
330
1F
100
AcDbEntity
  8
0
  6
HIDDEN
 62
     7
100
AcDbLine
 10
2.8305731113
 20
6.8252561056
 30
0.0
 11
2.8305731113
 21
7.1617129261
 31
0.0
  0
LINE
  5
229
330
1F
100
AcDbEntity
  8
0
  6
HIDDEN
 62
     7
100
AcDbLine
 10
2.5943526388
 20
7.1617133091
 30
0.0
 11
2.5943526388
 21
6.825520446
 31
0.0
  0
LINE
  5
22A
330
1F
100
AcDbEntity
  8
0
  6
HIDDEN
 62
     7
100
AcDbLine
 10
4.058919568
 20
6.8252561056
 30
0.0
 11
4.058919568
 21
7.1617129261
 31
0.0
  0
LINE
  5
22B
330
1F
100
AcDbEntity
  8
0
  6
HIDDEN
 62
     7
100
AcDbLine
 10
3.8226990955
 20
7.1617133091
 30
0.0
 11
3.8226990955
 21
6.825520446
 31
0.0
  0
LINE
  5
22C
330
1F
100
AcDbEntity
  8
0
  6
HIDDEN
 62
     7
100
AcDbLine
 10
4.058919568
 20
7.1598511547
 30
0.0
 11
4.047829989
 21
7.1709407336
 31
0.0
  0
LINE
  5
22D
330
1F
100
AcDbEntity
  8
0
  6
HIDDEN
 62
     7
100
AcDbLine
 10
3.8337895645
 20
7.1709416236
 30
0.0
 11
3.8226990955
 21
7.1598511547
 31
0.0
  0
LINE
  5
22E
330
1F
100
AcDbEntity
  8
0
  6
HIDDEN
 62
     7
100
AcDbLine
 10
4.058919568
 20
6.845520446
 30
0.0
 11
4.058919568
 21
7.1598511547
 31
0.0
  0
LINE
  5
22F
330
1F
100
AcDbEntity
  8
0
  6
HIDDEN
 62
     7
100
AcDbLine
 10
3.8226990955
 20
7.1598511547
 30
0.0
 11
3.8226990955
 21
6.845520446
 31
0.0
  0
LINE
  5
230
330
1F
100
AcDbEntity
  8
0
  6
HIDDEN
 62
     7
100
AcDbLine
 10
3.8226990955
 20
6.845520446
 30
0.0
 11
3.8426990955
 21
6.825520446
 31
0.0
  0
LINE
  5
231
330
1F
100
AcDbEntity
  8
0
  6
HIDDEN
 62
     7
100
AcDbLine
 10
4.038919568
 20
6.825520446
 30
0.0
 11
4.058919568
 21
6.845520446
 31
0.0
  0
LINE
  5
232
330
1F
100
AcDbEntity
  8
0
  6
HIDDEN
 62
     7
100
AcDbLine
 10
2.8305731113
 20
7.1598511547
 30
0.0
 11
2.8194835323
 21
7.1709407336
 31
0.0
  0
LINE
  5
233
330
1F
100
AcDbEntity
  8
0
  6
HIDDEN
 62
     7
100
AcDbLine
 10
2.6054431078
 20
7.1709416236
 30
0.0
 11
2.5943526388
 21
7.1598511547
 31
0.0
  0
LINE
  5
234
330
1F
100
AcDbEntity
  8
0
  6
HIDDEN
 62
     7
100
AcDbLine
 10
2.8305731113
 20
6.845520446
 30
0.0
 11
2.8305731113
 21
7.1598511547
 31
0.0
  0
LINE
  5
235
330
1F
100
AcDbEntity
  8
0
  6
HIDDEN
 62
     7
100
AcDbLine
 10
2.5943526388
 20
7.1598511547
 30
0.0
 11
2.5943526388
 21
6.845520446
 31
0.0
  0
LINE
  5
236
330
1F
100
AcDbEntity
  8
0
  6
HIDDEN
 62
     7
100
AcDbLine
 10
2.5943526388
 20
6.845520446
 30
0.0
 11
2.6143526388
 21
6.825520446
 31
0.0
  0
LINE
  5
237
330
1F
100
AcDbEntity
  8
0
  6
HIDDEN
 62
     7
100
AcDbLine
 10
2.8105731113
 20
6.825520446
 30
0.0
 11
2.8305731113
 21
6.845520446
 31
0.0
  0
LINE
  5
238
330
1F
100
AcDbEntity
  8
0
  6
CONTINUOUS
 62
     7
100
AcDbLine
 10
8.7620568127
 20
6.0884280754
 30
0.0
 11
8.7832665684
 21
6.1006761874
 31
0.0
  0
LINE
  5
239
330
1F
100
AcDbEntity
  8
0
  6
CONTINUOUS
 62
     7
100
AcDbLine
 10
9.1239030385
 20
6.6907397951
 30
0.0
 11
9.1239030385
 21
6.7152320384
 31
0.0
  0
LINE
  5
23A
330
1F
100
AcDbEntity
  8
0
  6
CONTINUOUS
 62
     7
100
AcDbLine
 10
8.1979128017
 20
6.2409756958
 30
0.0
 11
8.5061132779
 21
6.063055348
 31
0.0
  0
LINE
  5
23B
330
1F
100
AcDbEntity
  8
0
  6
CONTINUOUS
 62
     7
100
AcDbLine
 10
8.0949887971
 20
6.3003924589
 30
0.0
 11
8.1464507994
 21
6.2706840773
 31
0.0
  0
LINE
  5
23C
330
1F
100
AcDbEntity
  8
0
  6
CONTINUOUS
 62
     7
100
AcDbLine
 10
7.9920647924
 20
6.359809222
 30
0.0
 11
8.0435267947
 21
6.3301008405
 31
0.0
  0
LINE
  5
23D
330
1F
100
AcDbEntity
  8
0
  6
CONTINUOUS
 62
     7
100
AcDbLine
 10
7.8891407878
 20
6.4192259852
 30
0.0
 11
7.9406027901
 21
6.3895176036
 31
0.0
  0
LINE
  5
23E
330
1F
100
AcDbEntity
  8
0
  6
CONTINUOUS
 62
     7
100
AcDbLine
 10
7.7862167832
 20
6.4786427483
 30
0.0
 11
7.8376787855
 21
6.4489343667
 31
0.0
  0
LINE
  5
23F
330
1F
100
AcDbEntity
  8
0
  6
CONTINUOUS
 62
     7
100
AcDbLine
 10
7.6832927786
 20
6.5380595114
 30
0.0
 11
7.7347547809
 21
6.5083511299
 31
0.0
  0
LINE
  5
240
330
1F
100
AcDbEntity
  8
0
  6
CONTINUOUS
 62
     7
100
AcDbLine
 10
7.3236303001
 20
6.7456882408
 30
0.0
 11
7.6318307763
 21
6.567767893
 31
0.0
  0
LINE
  5
241
330
1F
100
AcDbEntity
  8
0
  6
CONTINUOUS
 62
     7
100
AcDbLine
 10
8.1436002064
 20
7.4542746025
 30
0.0
 11
7.8353997301
 21
7.6321949503
 31
0.0
  0
LINE
  5
242
330
1F
100
AcDbEntity
  8
0
  6
CONTINUOUS
 62
     7
100
AcDbLine
 10
8.246524211
 20
7.3948578394
 30
0.0
 11
8.1950622087
 21
7.424566221
 31
0.0
  0
LINE
  5
243
330
1F
100
AcDbEntity
  8
0
  6
CONTINUOUS
 62
     7
100
AcDbLine
 10
8.3494482156
 20
7.3354410763
 30
0.0
 11
8.2979862133
 21
7.3651494578
 31
0.0
  0
LINE
  5
244
330
1F
100
AcDbEntity
  8
0
  6
CONTINUOUS
 62
     7
100
AcDbLine
 10
8.4523722202
 20
7.2760243131
 30
0.0
 11
8.4009102179
 21
7.3057326947
 31
0.0
  0
LINE
  5
245
330
1F
100
AcDbEntity
  8
0
  6
CONTINUOUS
 62
     7
100
AcDbLine
 10
8.5552962248
 20
7.21660755
 30
0.0
 11
8.5038342225
 21
7.2463159316
 31
0.0
  0
LINE
  5
246
330
1F
100
AcDbEntity
  8
0
  6
CONTINUOUS
 62
     7
100
AcDbLine
 10
8.6582202294
 20
7.1571907869
 30
0.0
 11
8.6067582271
 21
7.1868991684
 31
0.0
  0
LINE
  5
247
330
1F
100
AcDbEntity
  8
0
  6
CONTINUOUS
 62
     7
100
AcDbLine
 10
9.017882708
 20
6.9495620575
 30
0.0
 11
8.7096822317
 21
7.1274824053
 31
0.0
  0
LINE
  5
248
330
1F
100
AcDbEntity
  8
0
  6
CONTINUOUS
 62
     7
100
AcDbLine
 10
8.5921168067
 20
6.9220983665
 30
0.0
 11
8.5921284052
 21
6.9220992826
 31
0.0
  0
LINE
  5
249
330
1F
100
AcDbEntity
  8
0
  6
CONTINUOUS
 62
     7
100
AcDbLine
 10
7.7235446975
 20
7.4235143722
 30
0.0
 11
7.7235562961
 21
7.4235152883
 31
0.0
  0
LINE
  5
24A
330
1F
100
AcDbEntity
  8
0
  6
CONTINUOUS
 62
     7
100
AcDbLine
 10
7.5794561954
 20
7.6068222229
 30
0.0
 11
7.5582464397
 21
7.5945741109
 31
0.0
  0
LINE
  5
24B
330
1F
100
AcDbEntity
  8
0
  6
CONTINUOUS
 62
     7
100
AcDbLine
 10
7.2176099696
 20
7.0045105032
 30
0.0
 11
7.2176099696
 21
6.9800182599
 31
0.0
  0
LINE
  5
24C
330
1F
100
AcDbEntity
  8
0
  6
CONTINUOUS
 62
     7
100
AcDbLine
 10
8.7163866819
 20
6.5810967478
 30
0.0
 11
8.7305265191
 21
6.5729313398
 31
0.0
  0
LINE
  5
24D
330
1F
100
AcDbEntity
  8
0
  6
CONTINUOUS
 62
     7
100
AcDbLine
 10
8.6885726781
 20
7.046706161
 30
0.0
 11
8.6744282445
 21
7.0548742229
 31
0.0
  0
LINE
  5
24E
330
1F
100
AcDbEntity
  8
0
  6
CONTINUOUS
 62
     7
100
AcDbLine
 10
8.5356568727
 20
7.0548742229
 30
0.0
 11
8.5215124392
 21
7.046706161
 31
0.0
  0
LINE
  5
24F
330
1F
100
AcDbEntity
  8
0
  6
CONTINUOUS
 62
     7
100
AcDbLine
 10
8.7231527948
 20
6.9917003988
 30
0.0
 11
8.7231527948
 21
6.9985009188
 31
0.0
  0
LINE
  5
250
330
1F
100
AcDbEntity
  8
0
  6
CONTINUOUS
 62
     7
100
AcDbLine
 10
8.4869323224
 20
6.9985009188
 30
0.0
 11
8.4869323224
 21
6.9916955212
 31
0.0
  0
LINE
  5
251
330
1F
100
AcDbEntity
  8
0
  6
CONTINUOUS
 62
     7
100
AcDbLine
 10
7.8200005689
 20
7.5481221666
 30
0.0
 11
7.8058561353
 21
7.5562902285
 31
0.0
  0
LINE
  5
252
330
1F
100
AcDbEntity
  8
0
  6
CONTINUOUS
 62
     7
100
AcDbLine
 10
7.6670847636
 20
7.5562902285
 30
0.0
 11
7.65294033
 21
7.5481221666
 31
0.0
  0
LINE
  5
253
330
1F
100
AcDbEntity
  8
0
  6
CONTINUOUS
 62
     7
100
AcDbLine
 10
7.8545806857
 20
7.4931164045
 30
0.0
 11
7.8545806857
 21
7.4999169245
 31
0.0
  0
LINE
  5
254
330
1F
100
AcDbEntity
  8
0
  6
CONTINUOUS
 62
     7
100
AcDbLine
 10
7.6183602132
 20
7.4999169245
 30
0.0
 11
7.6183602132
 21
7.4931115269
 31
0.0
  0
POLYLINE
  5
255
330
1F
100
AcDbEntity
  8
0
  6
CONTINUOUS
 62
     7
100
AcDb2dPolyline
 66
     1
 10
0.0
 20
0.0
 30
0.0
  0
VERTEX
  5
2B9
330
255
100
AcDbEntity
  8
0
  6
CONTINUOUS
 62
     7
100
AcDbVertex
100
AcDb2dVertex
 10
9.1239030385
 20
6.6907397951
 30
0.0
  0
VERTEX
  5
2BA
330
255
100
AcDbEntity
  8
0
  6
CONTINUOUS
 62
     7
100
AcDbVertex
100
AcDb2dVertex
 10
9.1233474055
 20
6.7128788216
 30
0.0
  0
VERTEX
  5
2BB
330
255
100
AcDbEntity
  8
0
  6
CONTINUOUS
 62
     7
100
AcDbVertex
100
AcDb2dVertex
 10
9.1216823189
 20
6.734304115
 30
0.0
  0
VERTEX
  5
2BC
330
255
100
AcDbEntity
  8
0
  6
CONTINUOUS
 62
     7
100
AcDbVertex
100
AcDb2dVertex
 10
9.1189132098
 20
6.7549457904
 30
0.0
  0
VERTEX
  5
2BD
330
255
100
AcDbEntity
  8
0
  6
CONTINUOUS
 62
     7
100
AcDbVertex
100
AcDb2dVertex
 10
9.1150491106
 20
6.7747365191
 30
0.0
  0
VERTEX
  5
2BE
330
255
100
AcDbEntity
  8
0
  6
CONTINUOUS
 62
     7
100
AcDbVertex
100
AcDb2dVertex
 10
9.110102625
 20
6.7936117477
 30
0.0
  0
VERTEX
  5
2BF
330
255
100
AcDbEntity
  8
0
  6
CONTINUOUS
 62
     7
100
AcDbVertex
100
AcDb2dVertex
 10
9.1040898876
 20
6.8115099092
 30
0.0
  0
VERTEX
  5
2C0
330
255
100
AcDbEntity
  8
0
  6
CONTINUOUS
 62
     7
100
AcDbVertex
100
AcDb2dVertex
 10
9.0970305105
 20
6.8283726234
 30
0.0
  0
VERTEX
  5
2C1
330
255
100
AcDbEntity
  8
0
  6
CONTINUOUS
 62
     7
100
AcDbVertex
100
AcDb2dVertex
 10
9.0889475201
 20
6.8441448879
 30
0.0
  0
VERTEX
  5
2C2
330
255
100
AcDbEntity
  8
0
  6
CONTINUOUS
 62
     7
100
AcDbVertex
100
AcDb2dVertex
 10
9.0798672814
 20
6.8587752565
 30
0.0
  0
VERTEX
  5
2C3
330
255
100
AcDbEntity
  8
0
  6
CONTINUOUS
 62
     7
100
AcDbVertex
100
AcDb2dVertex
 10
9.0698194121
 20
6.8722160083
 30
0.0
  0
VERTEX
  5
2C4
330
255
100
AcDbEntity
  8
0
  6
CONTINUOUS
 62
     7
100
AcDbVertex
100
AcDb2dVertex
 10
9.0588366865
 20
6.8844233022
 30
0.0
  0
VERTEX
  5
2C5
330
255
100
AcDbEntity
  8
0
  6
CONTINUOUS
 62
     7
100
AcDbVertex
100
AcDb2dVertex
 10
9.0469549277
 20
6.8953573205
 30
0.0
  0
VERTEX
  5
2C6
330
255
100
AcDbEntity
  8
0
  6
CONTINUOUS
 62
     7
100
AcDbVertex
100
AcDb2dVertex
 10
9.0342128918
 20
6.9049823988
 30
0.0
  0
VERTEX
  5
2C7
330
255
100
AcDbEntity
  8
0
  6
CONTINUOUS
 62
     7
100
AcDbVertex
100
AcDb2dVertex
 10
9.0206521405
 20
6.9132671421
 30
0.0
  0
VERTEX
  5
2C8
330
255
100
AcDbEntity
  8
0
  6
CONTINUOUS
 62
     7
100
AcDbVertex
100
AcDb2dVertex
 10
9.0063169061
 20
6.9201845272
 30
0.0
  0
VERTEX
  5
2C9
330
255
100
AcDbEntity
  8
0
  6
CONTINUOUS
 62
     7
100
AcDbVertex
100
AcDb2dVertex
 10
8.9912539474
 20
6.9257119911
 30
0.0
  0
VERTEX
  5
2CA
330
255
100
AcDbEntity
  8
0
  6
CONTINUOUS
 62
     7
100
AcDbVertex
100
AcDb2dVertex
 10
8.9755123964
 20
6.9298315044
 30
0.0
  0
VERTEX
  5
2CB
330
255
100
AcDbEntity
  8
0
  6
CONTINUOUS
 62
     7
100
AcDbVertex
100
AcDb2dVertex
 10
8.9591435988
 20
6.93252963
 30
0.0
  0
VERTEX
  5
2CC
330
255
100
AcDbEntity
  8
0
  6
CONTINUOUS
 62
     7
100
AcDbVertex
100
AcDb2dVertex
 10
8.9422009464
 20
6.9337975672
 30
0.0
  0
VERTEX
  5
2CD
330
255
100
AcDbEntity
  8
0
  6
CONTINUOUS
 62
     7
100
AcDbVertex
100
AcDb2dVertex
 10
8.9247397024
 20
6.9336311803
 30
0.0
  0
VERTEX
  5
2CE
330
255
100
AcDbEntity
  8
0
  6
CONTINUOUS
 62
     7
100
AcDbVertex
100
AcDb2dVertex
 10
8.9068168218
 20
6.932031012
 30
0.0
  0
VERTEX
  5
2CF
330
255
100
AcDbEntity
  8
0
  6
CONTINUOUS
 62
     7
100
AcDbVertex
100
AcDb2dVertex
 10
8.8884907654
 20
6.9290022817
 30
0.0
  0
VERTEX
  5
2D0
330
255
100
AcDbEntity
  8
0
  6
CONTINUOUS
 62
     7
100
AcDbVertex
100
AcDb2dVertex
 10
8.869821309
 20
6.9245548685
 30
0.0
  0
VERTEX
  5
2D1
330
255
100
AcDbEntity
  8
0
  6
CONTINUOUS
 62
     7
100
AcDbVertex
100
AcDb2dVertex
 10
8.8508693483
 20
6.9187032789
 30
0.0
  0
VERTEX
  5
2D2
330
255
100
AcDbEntity
  8
0
  6
CONTINUOUS
 62
     7
100
AcDbVertex
100
AcDb2dVertex
 10
8.8316967008
 20
6.9114665997
 30
0.0
  0
VERTEX
  5
2D3
330
255
100
AcDbEntity
  8
0
  6
CONTINUOUS
 62
     7
100
AcDbVertex
100
AcDb2dVertex
 10
8.8123659037
 20
6.9028684353
 30
0.0
  0
VERTEX
  5
2D4
330
255
100
AcDbEntity
  8
0
  6
CONTINUOUS
 62
     7
100
AcDbVertex
100
AcDb2dVertex
 10
8.7929400099
 20
6.8929368311
 30
0.0
  0
VERTEX
  5
2D5
330
255
100
AcDbEntity
  8
0
  6
CONTINUOUS
 62
     7
100
AcDbVertex
100
AcDb2dVertex
 10
8.7734823829
 20
6.8817041821
 30
0.0
  0
VERTEX
  5
2D6
330
255
100
AcDbEntity
  8
0
  6
CONTINUOUS
 62
     7
100
AcDbVertex
100
AcDb2dVertex
 10
8.7540564891
 20
6.8692071267
 30
0.0
  0
VERTEX
  5
2D7
330
255
100
AcDbEntity
  8
0
  6
CONTINUOUS
 62
     7
100
AcDbVertex
100
AcDb2dVertex
 10
8.734725692
 20
6.8554864278
 30
0.0
  0
VERTEX
  5
2D8
330
255
100
AcDbEntity
  8
0
  6
CONTINUOUS
 62
     7
100
AcDbVertex
100
AcDb2dVertex
 10
8.7155530445
 20
6.8405868395
 30
0.0
  0
VERTEX
  5
2D9
330
255
100
AcDbEntity
  8
0
  6
CONTINUOUS
 62
     7
100
AcDbVertex
100
AcDb2dVertex
 10
8.6966010838
 20
6.824556961
 30
0.0
  0
VERTEX
  5
2DA
330
255
100
AcDbEntity
  8
0
  6
CONTINUOUS
 62
     7
100
AcDbVertex
100
AcDb2dVertex
 10
8.6779316274
 20
6.8074490786
 30
0.0
  0
VERTEX
  5
2DB
330
255
100
AcDbEntity
  8
0
  6
CONTINUOUS
 62
     7
100
AcDbVertex
100
AcDb2dVertex
 10
8.659605571
 20
6.7893189945
 30
0.0
  0
VERTEX
  5
2DC
330
255
100
AcDbEntity
  8
0
  6
CONTINUOUS
 62
     7
100
AcDbVertex
100
AcDb2dVertex
 10
8.6416826904
 20
6.7702258454
 30
0.0
  0
VERTEX
  5
2DD
330
255
100
AcDbEntity
  8
0
  6
CONTINUOUS
 62
     7
100
AcDbVertex
100
AcDb2dVertex
 10
8.6242214464
 20
6.7502319092
 30
0.0
  0
VERTEX
  5
2DE
330
255
100
AcDbEntity
  8
0
  6
CONTINUOUS
 62
     7
100
AcDbVertex
100
AcDb2dVertex
 10
8.607278794
 20
6.7294024018
 30
0.0
  0
VERTEX
  5
2DF
330
255
100
AcDbEntity
  8
0
  6
CONTINUOUS
 62
     7
100
AcDbVertex
100
AcDb2dVertex
 10
8.5909099964
 20
6.7078052648
 30
0.0
  0
VERTEX
  5
2E0
330
255
100
AcDbEntity
  8
0
  6
CONTINUOUS
 62
     7
100
AcDbVertex
100
AcDb2dVertex
 10
8.5751684454
 20
6.6855109437
 30
0.0
  0
VERTEX
  5
2E1
330
255
100
AcDbEntity
  8
0
  6
CONTINUOUS
 62
     7
100
AcDbVertex
100
AcDb2dVertex
 10
8.5601054867
 20
6.6625921578
 30
0.0
  0
VERTEX
  5
2E2
330
255
100
AcDbEntity
  8
0
  6
CONTINUOUS
 62
     7
100
AcDbVertex
100
AcDb2dVertex
 10
8.5457702523
 20
6.6391236634
 30
0.0
  0
VERTEX
  5
2E3
330
255
100
AcDbEntity
  8
0
  6
CONTINUOUS
 62
     7
100
AcDbVertex
100
AcDb2dVertex
 10
8.532209501
 20
6.6151820099
 30
0.0
  0
VERTEX
  5
2E4
330
255
100
AcDbEntity
  8
0
  6
CONTINUOUS
 62
     7
100
AcDbVertex
100
AcDb2dVertex
 10
8.5194674651
 20
6.59084529
 30
0.0
  0
VERTEX
  5
2E5
330
255
100
AcDbEntity
  8
0
  6
CONTINUOUS
 62
     7
100
AcDbVertex
100
AcDb2dVertex
 10
8.5075857063
 20
6.5661928851
 30
0.0
  0
VERTEX
  5
2E6
330
255
100
AcDbEntity
  8
0
  6
CONTINUOUS
 62
     7
100
AcDbVertex
100
AcDb2dVertex
 10
8.4966029807
 20
6.541305206
 30
0.0
  0
VERTEX
  5
2E7
330
255
100
AcDbEntity
  8
0
  6
CONTINUOUS
 62
     7
100
AcDbVertex
100
AcDb2dVertex
 10
8.4865551114
 20
6.5162634314
 30
0.0
  0
VERTEX
  5
2E8
330
255
100
AcDbEntity
  8
0
  6
CONTINUOUS
 62
     7
100
AcDbVertex
100
AcDb2dVertex
 10
8.4774748727
 20
6.4911492422
 30
0.0
  0
VERTEX
  5
2E9
330
255
100
AcDbEntity
  8
0
  6
CONTINUOUS
 62
     7
100
AcDbVertex
100
AcDb2dVertex
 10
8.4693918823
 20
6.4660445557
 30
0.0
  0
VERTEX
  5
2EA
330
255
100
AcDbEntity
  8
0
  6
CONTINUOUS
 62
     7
100
AcDbVertex
100
AcDb2dVertex
 10
8.4623325052
 20
6.4410312582
 30
0.0
  0
VERTEX
  5
2EB
330
255
100
AcDbEntity
  8
0
  6
CONTINUOUS
 62
     7
100
AcDbVertex
100
AcDb2dVertex
 10
8.4563197678
 20
6.4161909378
 30
0.0
  0
VERTEX
  5
2EC
330
255
100
AcDbEntity
  8
0
  6
CONTINUOUS
 62
     7
100
AcDbVertex
100
AcDb2dVertex
 10
8.4513732822
 20
6.3916046186
 30
0.0
  0
VERTEX
  5
2ED
330
255
100
AcDbEntity
  8
0
  6
CONTINUOUS
 62
     7
100
AcDbVertex
100
AcDb2dVertex
 10
8.447509183
 20
6.3673524959
 30
0.0
  0
VERTEX
  5
2EE
330
255
100
AcDbEntity
  8
0
  6
CONTINUOUS
 62
     7
100
AcDbVertex
100
AcDb2dVertex
 10
8.4447400739
 20
6.3435136752
 30
0.0
  0
VERTEX
  5
2EF
330
255
100
AcDbEntity
  8
0
  6
CONTINUOUS
 62
     7
100
AcDbVertex
100
AcDb2dVertex
 10
8.4430749873
 20
6.3201659137
 30
0.0
  0
VERTEX
  5
2F0
330
255
100
AcDbEntity
  8
0
  6
CONTINUOUS
 62
     7
100
AcDbVertex
100
AcDb2dVertex
 10
8.4425193543
 20
6.297385367
 30
0.0
  0
VERTEX
  5
2F1
330
255
100
AcDbEntity
  8
0
  6
CONTINUOUS
 62
     7
100
AcDbVertex
100
AcDb2dVertex
 10
8.4430749873
 20
6.2752463405
 30
0.0
  0
VERTEX
  5
2F2
330
255
100
AcDbEntity
  8
0
  6
CONTINUOUS
 62
     7
100
AcDbVertex
100
AcDb2dVertex
 10
8.4447400739
 20
6.2538210471
 30
0.0
  0
VERTEX
  5
2F3
330
255
100
AcDbEntity
  8
0
  6
CONTINUOUS
 62
     7
100
AcDbVertex
100
AcDb2dVertex
 10
8.447509183
 20
6.2331793717
 30
0.0
  0
VERTEX
  5
2F4
330
255
100
AcDbEntity
  8
0
  6
CONTINUOUS
 62
     7
100
AcDbVertex
100
AcDb2dVertex
 10
8.4513732822
 20
6.213388643
 30
0.0
  0
VERTEX
  5
2F5
330
255
100
AcDbEntity
  8
0
  6
CONTINUOUS
 62
     7
100
AcDbVertex
100
AcDb2dVertex
 10
8.4563197678
 20
6.1945134144
 30
0.0
  0
VERTEX
  5
2F6
330
255
100
AcDbEntity
  8
0
  6
CONTINUOUS
 62
     7
100
AcDbVertex
100
AcDb2dVertex
 10
8.4623325052
 20
6.1766152529
 30
0.0
  0
VERTEX
  5
2F7
330
255
100
AcDbEntity
  8
0
  6
CONTINUOUS
 62
     7
100
AcDbVertex
100
AcDb2dVertex
 10
8.4693918823
 20
6.1597525386
 30
0.0
  0
VERTEX
  5
2F8
330
255
100
AcDbEntity
  8
0
  6
CONTINUOUS
 62
     7
100
AcDbVertex
100
AcDb2dVertex
 10
8.4774748727
 20
6.1439802742
 30
0.0
  0
VERTEX
  5
2F9
330
255
100
AcDbEntity
  8
0
  6
CONTINUOUS
 62
     7
100
AcDbVertex
100
AcDb2dVertex
 10
8.4865551114
 20
6.1293499055
 30
0.0
  0
VERTEX
  5
2FA
330
255
100
AcDbEntity
  8
0
  6
CONTINUOUS
 62
     7
100
AcDbVertex
100
AcDb2dVertex
 10
8.4966029807
 20
6.1159091538
 30
0.0
  0
VERTEX
  5
2FB
330
255
100
AcDbEntity
  8
0
  6
CONTINUOUS
 62
     7
100
AcDbVertex
100
AcDb2dVertex
 10
8.5075857063
 20
6.1037018599
 30
0.0
  0
VERTEX
  5
2FC
330
255
100
AcDbEntity
  8
0
  6
CONTINUOUS
 62
     7
100
AcDbVertex
100
AcDb2dVertex
 10
8.5194674651
 20
6.0927678416
 30
0.0
  0
VERTEX
  5
2FD
330
255
100
AcDbEntity
  8
0
  6
CONTINUOUS
 62
     7
100
AcDbVertex
100
AcDb2dVertex
 10
8.532209501
 20
6.0831427633
 30
0.0
  0
VERTEX
  5
2FE
330
255
100
AcDbEntity
  8
0
  6
CONTINUOUS
 62
     7
100
AcDbVertex
100
AcDb2dVertex
 10
8.5457702523
 20
6.07485802
 30
0.0
  0
VERTEX
  5
2FF
330
255
100
AcDbEntity
  8
0
  6
CONTINUOUS
 62
     7
100
AcDbVertex
100
AcDb2dVertex
 10
8.5601054867
 20
6.0679406349
 30
0.0
  0
VERTEX
  5
300
330
255
100
AcDbEntity
  8
0
  6
CONTINUOUS
 62
     7
100
AcDbVertex
100
AcDb2dVertex
 10
8.5751684454
 20
6.062413171
 30
0.0
  0
VERTEX
  5
301
330
255
100
AcDbEntity
  8
0
  6
CONTINUOUS
 62
     7
100
AcDbVertex
100
AcDb2dVertex
 10
8.5909099964
 20
6.0582936577
 30
0.0
  0
VERTEX
  5
302
330
255
100
AcDbEntity
  8
0
  6
CONTINUOUS
 62
     7
100
AcDbVertex
100
AcDb2dVertex
 10
8.607278794
 20
6.0555955321
 30
0.0
  0
VERTEX
  5
303
330
255
100
AcDbEntity
  8
0
  6
CONTINUOUS
 62
     7
100
AcDbVertex
100
AcDb2dVertex
 10
8.6242214464
 20
6.0543275949
 30
0.0
  0
VERTEX
  5
304
330
255
100
AcDbEntity
  8
0
  6
CONTINUOUS
 62
     7
100
AcDbVertex
100
AcDb2dVertex
 10
8.6416826904
 20
6.0544939818
 30
0.0
  0
VERTEX
  5
305
330
255
100
AcDbEntity
  8
0
  6
CONTINUOUS
 62
     7
100
AcDbVertex
100
AcDb2dVertex
 10
8.659605571
 20
6.0560941501
 30
0.0
  0
VERTEX
  5
306
330
255
100
AcDbEntity
  8
0
  6
CONTINUOUS
 62
     7
100
AcDbVertex
100
AcDb2dVertex
 10
8.6779316274
 20
6.0591228804
 30
0.0
  0
VERTEX
  5
307
330
255
100
AcDbEntity
  8
0
  6
CONTINUOUS
 62
     7
100
AcDbVertex
100
AcDb2dVertex
 10
8.6966010838
 20
6.0635702936
 30
0.0
  0
VERTEX
  5
308
330
255
100
AcDbEntity
  8
0
  6
CONTINUOUS
 62
     7
100
AcDbVertex
100
AcDb2dVertex
 10
8.7155530445
 20
6.0694218832
 30
0.0
  0
VERTEX
  5
309
330
255
100
AcDbEntity
  8
0
  6
CONTINUOUS
 62
     7
100
AcDbVertex
100
AcDb2dVertex
 10
8.734725692
 20
6.0766585624
 30
0.0
  0
VERTEX
  5
30A
330
255
100
AcDbEntity
  8
0
  6
CONTINUOUS
 62
     7
100
AcDbVertex
100
AcDb2dVertex
 10
8.7540564891
 20
6.0852567268
 30
0.0
  0
VERTEX
  5
30B
330
255
100
AcDbEntity
  8
0
  6
CONTINUOUS
 62
     7
100
AcDbVertex
100
AcDb2dVertex
 10
8.7734823829
 20
6.095188331
 30
0.0
  0
VERTEX
  5
30C
330
255
100
AcDbEntity
  8
0
  6
CONTINUOUS
 62
     7
100
AcDbVertex
100
AcDb2dVertex
 10
8.7929400099
 20
6.10642098
 30
0.0
  0
VERTEX
  5
30D
330
255
100
AcDbEntity
  8
0
  6
CONTINUOUS
 62
     7
100
AcDbVertex
100
AcDb2dVertex
 10
8.8123659037
 20
6.1189180353
 30
0.0
  0
VERTEX
  5
30E
330
255
100
AcDbEntity
  8
0
  6
CONTINUOUS
 62
     7
100
AcDbVertex
100
AcDb2dVertex
 10
8.8316967008
 20
6.1326387342
 30
0.0
  0
VERTEX
  5
30F
330
255
100
AcDbEntity
  8
0
  6
CONTINUOUS
 62
     7
100
AcDbVertex
100
AcDb2dVertex
 10
8.8508693483
 20
6.1475383226
 30
0.0
  0
VERTEX
  5
310
330
255
100
AcDbEntity
  8
0
  6
CONTINUOUS
 62
     7
100
AcDbVertex
100
AcDb2dVertex
 10
8.869821309
 20
6.163568201
 30
0.0
  0
VERTEX
  5
311
330
255
100
AcDbEntity
  8
0
  6
CONTINUOUS
 62
     7
100
AcDbVertex
100
AcDb2dVertex
 10
8.8884907654
 20
6.1806760835
 30
0.0
  0
VERTEX
  5
312
330
255
100
AcDbEntity
  8
0
  6
CONTINUOUS
 62
     7
100
AcDbVertex
100
AcDb2dVertex
 10
8.9068168218
 20
6.1988061675
 30
0.0
  0
VERTEX
  5
313
330
255
100
AcDbEntity
  8
0
  6
CONTINUOUS
 62
     7
100
AcDbVertex
100
AcDb2dVertex
 10
8.9247397024
 20
6.2178993166
 30
0.0
  0
VERTEX
  5
314
330
255
100
AcDbEntity
  8
0
  6
CONTINUOUS
 62
     7
100
AcDbVertex
100
AcDb2dVertex
 10
8.9422009464
 20
6.2378932529
 30
0.0
  0
VERTEX
  5
315
330
255
100
AcDbEntity
  8
0
  6
CONTINUOUS
 62
     7
100
AcDbVertex
100
AcDb2dVertex
 10
8.9591435988
 20
6.2587227603
 30
0.0
  0
VERTEX
  5
316
330
255
100
AcDbEntity
  8
0
  6
CONTINUOUS
 62
     7
100
AcDbVertex
100
AcDb2dVertex
 10
8.9755123964
 20
6.2803198972
 30
0.0
  0
VERTEX
  5
317
330
255
100
AcDbEntity
  8
0
  6
CONTINUOUS
 62
     7
100
AcDbVertex
100
AcDb2dVertex
 10
8.9912539474
 20
6.3026142184
 30
0.0
  0
VERTEX
  5
318
330
255
100
AcDbEntity
  8
0
  6
CONTINUOUS
 62
     7
100
AcDbVertex
100
AcDb2dVertex
 10
9.0063169061
 20
6.3255330043
 30
0.0
  0
VERTEX
  5
319
330
255
100
AcDbEntity
  8
0
  6
CONTINUOUS
 62
     7
100
AcDbVertex
100
AcDb2dVertex
 10
9.0206521405
 20
6.3490014987
 30
0.0
  0
VERTEX
  5
31A
330
255
100
AcDbEntity
  8
0
  6
CONTINUOUS
 62
     7
100
AcDbVertex
100
AcDb2dVertex
 10
9.0342128918
 20
6.3729431522
 30
0.0
  0
VERTEX
  5
31B
330
255
100
AcDbEntity
  8
0
  6
CONTINUOUS
 62
     7
100
AcDbVertex
100
AcDb2dVertex
 10
9.0469549277
 20
6.3972798721
 30
0.0
  0
VERTEX
  5
31C
330
255
100
AcDbEntity
  8
0
  6
CONTINUOUS
 62
     7
100
AcDbVertex
100
AcDb2dVertex
 10
9.0588366865
 20
6.421932277
 30
0.0
  0
VERTEX
  5
31D
330
255
100
AcDbEntity
  8
0
  6
CONTINUOUS
 62
     7
100
AcDbVertex
100
AcDb2dVertex
 10
9.0698194121
 20
6.446819956
 30
0.0
  0
VERTEX
  5
31E
330
255
100
AcDbEntity
  8
0
  6
CONTINUOUS
 62
     7
100
AcDbVertex
100
AcDb2dVertex
 10
9.0798672814
 20
6.4718617307
 30
0.0
  0
VERTEX
  5
31F
330
255
100
AcDbEntity
  8
0
  6
CONTINUOUS
 62
     7
100
AcDbVertex
100
AcDb2dVertex
 10
9.0889475201
 20
6.4969759199
 30
0.0
  0
VERTEX
  5
320
330
255
100
AcDbEntity
  8
0
  6
CONTINUOUS
 62
     7
100
AcDbVertex
100
AcDb2dVertex
 10
9.0970305105
 20
6.5220806064
 30
0.0
  0
VERTEX
  5
321
330
255
100
AcDbEntity
  8
0
  6
CONTINUOUS
 62
     7
100
AcDbVertex
100
AcDb2dVertex
 10
9.1040898876
 20
6.5470939039
 30
0.0
  0
VERTEX
  5
322
330
255
100
AcDbEntity
  8
0
  6
CONTINUOUS
 62
     7
100
AcDbVertex
100
AcDb2dVertex
 10
9.110102625
 20
6.5719342243
 30
0.0
  0
VERTEX
  5
323
330
255
100
AcDbEntity
  8
0
  6
CONTINUOUS
 62
     7
100
AcDbVertex
100
AcDb2dVertex
 10
9.1150491106
 20
6.5965205435
 30
0.0
  0
VERTEX
  5
324
330
255
100
AcDbEntity
  8
0
  6
CONTINUOUS
 62
     7
100
AcDbVertex
100
AcDb2dVertex
 10
9.1189132098
 20
6.6207726662
 30
0.0
  0
VERTEX
  5
325
330
255
100
AcDbEntity
  8
0
  6
CONTINUOUS
 62
     7
100
AcDbVertex
100
AcDb2dVertex
 10
9.1216823189
 20
6.6446114869
 30
0.0
  0
VERTEX
  5
326
330
255
100
AcDbEntity
  8
0
  6
CONTINUOUS
 62
     7
100
AcDbVertex
100
AcDb2dVertex
 10
9.1233474055
 20
6.6679592484
 30
0.0
  0
VERTEX
  5
327
330
255
100
AcDbEntity
  8
0
  6
CONTINUOUS
 62
     7
100
AcDbVertex
100
AcDb2dVertex
 10
9.1239030385
 20
6.6907397951
 30
0.0
  0
SEQEND
  5
328
330
255
100
AcDbEntity
  8
0
  6
CONTINUOUS
 62
     7
  0
POLYLINE
  5
256
330
1F
100
AcDbEntity
  8
0
  6
CONTINUOUS
 62
     7
100
AcDb2dPolyline
 66
     1
 10
0.0
 20
0.0
 30
0.0
  0
VERTEX
  5
329
330
256
100
AcDbEntity
  8
0
  6
CONTINUOUS
 62
     7
100
AcDbVertex
100
AcDb2dVertex
 10
8.7620568127
 20
6.0884280754
 30
0.0
  0
VERTEX
  5
32A
330
256
100
AcDbEntity
  8
0
  6
CONTINUOUS
 62
     7
100
AcDbVertex
100
AcDb2dVertex
 10
8.7520259374
 20
6.0827960481
 30
0.0
  0
VERTEX
  5
32B
330
256
100
AcDbEntity
  8
0
  6
CONTINUOUS
 62
     7
100
AcDbVertex
100
AcDb2dVertex
 10
8.7321121112
 20
6.0725687518
 30
0.0
  0
VERTEX
  5
32C
330
256
100
AcDbEntity
  8
0
  6
CONTINUOUS
 62
     7
100
AcDbVertex
100
AcDb2dVertex
 10
8.7122890474
 20
6.0636587096
 30
0.0
  0
VERTEX
  5
32D
330
256
100
AcDbEntity
  8
0
  6
CONTINUOUS
 62
     7
100
AcDbVertex
100
AcDb2dVertex
 10
8.692616948
 20
6.0560929808
 30
0.0
  0
VERTEX
  5
32E
330
256
100
AcDbEntity
  8
0
  6
CONTINUOUS
 62
     7
100
AcDbVertex
100
AcDb2dVertex
 10
8.6731555566
 20
6.0498945424
 30
0.0
  0
VERTEX
  5
32F
330
256
100
AcDbEntity
  8
0
  6
CONTINUOUS
 62
     7
100
AcDbVertex
100
AcDb2dVertex
 10
8.6539639767
 20
6.0450822188
 30
0.0
  0
VERTEX
  5
330
330
256
100
AcDbEntity
  8
0
  6
CONTINUOUS
 62
     7
100
AcDbVertex
100
AcDb2dVertex
 10
8.6351004926
 20
6.0416706248
 30
0.0
  0
VERTEX
  5
331
330
256
100
AcDbEntity
  8
0
  6
CONTINUOUS
 62
     7
100
AcDbVertex
100
AcDb2dVertex
 10
8.616622392
 20
6.0396701215
 30
0.0
  0
VERTEX
  5
332
330
256
100
AcDbEntity
  8
0
  6
CONTINUOUS
 62
     7
100
AcDbVertex
100
AcDb2dVertex
 10
8.5985857924
 20
6.0390867841
 30
0.0
  0
VERTEX
  5
333
330
256
100
AcDbEntity
  8
0
  6
CONTINUOUS
 62
     7
100
AcDbVertex
100
AcDb2dVertex
 10
8.5810454702
 20
6.0399223844
 30
0.0
  0
VERTEX
  5
334
330
256
100
AcDbEntity
  8
0
  6
CONTINUOUS
 62
     7
100
AcDbVertex
100
AcDb2dVertex
 10
8.5640546949
 20
6.0421743846
 30
0.0
  0
VERTEX
  5
335
330
256
100
AcDbEntity
  8
0
  6
CONTINUOUS
 62
     7
100
AcDbVertex
100
AcDb2dVertex
 10
8.5476650669
 20
6.0458359454
 30
0.0
  0
VERTEX
  5
336
330
256
100
AcDbEntity
  8
0
  6
CONTINUOUS
 62
     7
100
AcDbVertex
100
AcDb2dVertex
 10
8.531926361
 20
6.0508959469
 30
0.0
  0
VERTEX
  5
337
330
256
100
AcDbEntity
  8
0
  6
CONTINUOUS
 62
     7
100
AcDbVertex
100
AcDb2dVertex
 10
8.516886375
 20
6.057339022
 30
0.0
  0
VERTEX
  5
338
330
256
100
AcDbEntity
  8
0
  6
CONTINUOUS
 62
     7
100
AcDbVertex
100
AcDb2dVertex
 10
8.5025907849
 20
6.0651456032
 30
0.0
  0
VERTEX
  5
339
330
256
100
AcDbEntity
  8
0
  6
CONTINUOUS
 62
     7
100
AcDbVertex
100
AcDb2dVertex
 10
8.4890830061
 20
6.0742919823
 30
0.0
  0
VERTEX
  5
33A
330
256
100
AcDbEntity
  8
0
  6
CONTINUOUS
 62
     7
100
AcDbVertex
100
AcDb2dVertex
 10
8.476404061
 20
6.0847503819
 30
0.0
  0
VERTEX
  5
33B
330
256
100
AcDbEntity
  8
0
  6
CONTINUOUS
 62
     7
100
AcDbVertex
100
AcDb2dVertex
 10
8.4645924554
 20
6.0964890403
 30
0.0
  0
VERTEX
  5
33C
330
256
100
AcDbEntity
  8
0
  6
CONTINUOUS
 62
     7
100
AcDbVertex
100
AcDb2dVertex
 10
8.4536840606
 20
6.1094723076
 30
0.0
  0
VERTEX
  5
33D
330
256
100
AcDbEntity
  8
0
  6
CONTINUOUS
 62
     7
100
AcDbVertex
100
AcDb2dVertex
 10
8.443712005
 20
6.1236607539
 30
0.0
  0
VERTEX
  5
33E
330
256
100
AcDbEntity
  8
0
  6
CONTINUOUS
 62
     7
100
AcDbVertex
100
AcDb2dVertex
 10
8.4347065736
 20
6.1390112895
 30
0.0
  0
VERTEX
  5
33F
330
256
100
AcDbEntity
  8
0
  6
CONTINUOUS
 62
     7
100
AcDbVertex
100
AcDb2dVertex
 10
8.4266951154
 20
6.1554772953
 30
0.0
  0
VERTEX
  5
340
330
256
100
AcDbEntity
  8
0
  6
CONTINUOUS
 62
     7
100
AcDbVertex
100
AcDb2dVertex
 10
8.4197019611
 20
6.1730087645
 30
0.0
  0
VERTEX
  5
341
330
256
100
AcDbEntity
  8
0
  6
CONTINUOUS
 62
     7
100
AcDbVertex
100
AcDb2dVertex
 10
8.4137483485
 20
6.1915524546
 30
0.0
  0
VERTEX
  5
342
330
256
100
AcDbEntity
  8
0
  6
CONTINUOUS
 62
     7
100
AcDbVertex
100
AcDb2dVertex
 10
8.4088523587
 20
6.2110520492
 30
0.0
  0
VERTEX
  5
343
330
256
100
AcDbEntity
  8
0
  6
CONTINUOUS
 62
     7
100
AcDbVertex
100
AcDb2dVertex
 10
8.4050288606
 20
6.2314483285
 30
0.0
  0
VERTEX
  5
344
330
256
100
AcDbEntity
  8
0
  6
CONTINUOUS
 62
     7
100
AcDbVertex
100
AcDb2dVertex
 10
8.402289466
 20
6.2526793497
 30
0.0
  0
VERTEX
  5
345
330
256
100
AcDbEntity
  8
0
  6
CONTINUOUS
 62
     7
100
AcDbVertex
100
AcDb2dVertex
 10
8.4006424943
 20
6.2746806349
 30
0.0
  0
VERTEX
  5
346
330
256
100
AcDbEntity
  8
0
  6
CONTINUOUS
 62
     7
100
AcDbVertex
100
AcDb2dVertex
 10
8.4000929475
 20
6.297385367
 30
0.0
  0
VERTEX
  5
347
330
256
100
AcDbEntity
  8
0
  6
CONTINUOUS
 62
     7
100
AcDbVertex
100
AcDb2dVertex
 10
8.4006424943
 20
6.3207245924
 30
0.0
  0
VERTEX
  5
348
330
256
100
AcDbEntity
  8
0
  6
CONTINUOUS
 62
     7
100
AcDbVertex
100
AcDb2dVertex
 10
8.402289466
 20
6.3446274306
 30
0.0
  0
VERTEX
  5
349
330
256
100
AcDbEntity
  8
0
  6
CONTINUOUS
 62
     7
100
AcDbVertex
100
AcDb2dVertex
 10
8.4050288606
 20
6.3690212895
 30
0.0
  0
VERTEX
  5
34A
330
256
100
AcDbEntity
  8
0
  6
CONTINUOUS
 62
     7
100
AcDbVertex
100
AcDb2dVertex
 10
8.4088523587
 20
6.3938320858
 30
0.0
  0
VERTEX
  5
34B
330
256
100
AcDbEntity
  8
0
  6
CONTINUOUS
 62
     7
100
AcDbVertex
100
AcDb2dVertex
 10
8.4137483485
 20
6.4189844699
 30
0.0
  0
VERTEX
  5
34C
330
256
100
AcDbEntity
  8
0
  6
CONTINUOUS
 62
     7
100
AcDbVertex
100
AcDb2dVertex
 10
8.4197019611
 20
6.4444020548
 30
0.0
  0
VERTEX
  5
34D
330
256
100
AcDbEntity
  8
0
  6
CONTINUOUS
 62
     7
100
AcDbVertex
100
AcDb2dVertex
 10
8.4266951154
 20
6.4700076481
 30
0.0
  0
VERTEX
  5
34E
330
256
100
AcDbEntity
  8
0
  6
CONTINUOUS
 62
     7
100
AcDbVertex
100
AcDb2dVertex
 10
8.4347065736
 20
6.4957234866
 30
0.0
  0
VERTEX
  5
34F
330
256
100
AcDbEntity
  8
0
  6
CONTINUOUS
 62
     7
100
AcDbVertex
100
AcDb2dVertex
 10
8.443712005
 20
6.521471472
 30
0.0
  0
VERTEX
  5
350
330
256
100
AcDbEntity
  8
0
  6
CONTINUOUS
 62
     7
100
AcDbVertex
100
AcDb2dVertex
 10
8.4536840606
 20
6.5471734086
 30
0.0
  0
VERTEX
  5
351
330
256
100
AcDbEntity
  8
0
  6
CONTINUOUS
 62
     7
100
AcDbVertex
100
AcDb2dVertex
 10
8.4645924554
 20
6.5727512404
 30
0.0
  0
VERTEX
  5
352
330
256
100
AcDbEntity
  8
0
  6
CONTINUOUS
 62
     7
100
AcDbVertex
100
AcDb2dVertex
 10
8.476404061
 20
6.5981272884
 30
0.0
  0
VERTEX
  5
353
330
256
100
AcDbEntity
  8
0
  6
CONTINUOUS
 62
     7
100
AcDbVertex
100
AcDb2dVertex
 10
8.4890830061
 20
6.6232244864
 30
0.0
  0
VERTEX
  5
354
330
256
100
AcDbEntity
  8
0
  6
CONTINUOUS
 62
     7
100
AcDbVertex
100
AcDb2dVertex
 10
8.5025907849
 20
6.647966615
 30
0.0
  0
VERTEX
  5
355
330
256
100
AcDbEntity
  8
0
  6
CONTINUOUS
 62
     7
100
AcDbVertex
100
AcDb2dVertex
 10
8.516886375
 20
6.6722785331
 30
0.0
  0
VERTEX
  5
356
330
256
100
AcDbEntity
  8
0
  6
CONTINUOUS
 62
     7
100
AcDbVertex
100
AcDb2dVertex
 10
8.531926361
 20
6.6960864064
 30
0.0
  0
VERTEX
  5
357
330
256
100
AcDbEntity
  8
0
  6
CONTINUOUS
 62
     7
100
AcDbVertex
100
AcDb2dVertex
 10
8.5476650669
 20
6.719317931
 30
0.0
  0
VERTEX
  5
358
330
256
100
AcDbEntity
  8
0
  6
CONTINUOUS
 62
     7
100
AcDbVertex
100
AcDb2dVertex
 10
8.5640546949
 20
6.7419025536
 30
0.0
  0
VERTEX
  5
359
330
256
100
AcDbEntity
  8
0
  6
CONTINUOUS
 62
     7
100
AcDbVertex
100
AcDb2dVertex
 10
8.5810454702
 20
6.7637716853
 30
0.0
  0
VERTEX
  5
35A
330
256
100
AcDbEntity
  8
0
  6
CONTINUOUS
 62
     7
100
AcDbVertex
100
AcDb2dVertex
 10
8.5985857924
 20
6.7848589105
 30
0.0
  0
VERTEX
  5
35B
330
256
100
AcDbEntity
  8
0
  6
CONTINUOUS
 62
     7
100
AcDbVertex
100
AcDb2dVertex
 10
8.616622392
 20
6.8051001879
 30
0.0
  0
VERTEX
  5
35C
330
256
100
AcDbEntity
  8
0
  6
CONTINUOUS
 62
     7
100
AcDbVertex
100
AcDb2dVertex
 10
8.6351004926
 20
6.8244340453
 30
0.0
  0
VERTEX
  5
35D
330
256
100
AcDbEntity
  8
0
  6
CONTINUOUS
 62
     7
100
AcDbVertex
100
AcDb2dVertex
 10
8.6539639767
 20
6.8428017665
 30
0.0
  0
VERTEX
  5
35E
330
256
100
AcDbEntity
  8
0
  6
CONTINUOUS
 62
     7
100
AcDbVertex
100
AcDb2dVertex
 10
8.6731555566
 20
6.8601475694
 30
0.0
  0
VERTEX
  5
35F
330
256
100
AcDbEntity
  8
0
  6
CONTINUOUS
 62
     7
100
AcDbVertex
100
AcDb2dVertex
 10
8.692616948
 20
6.8764187752
 30
0.0
  0
VERTEX
  5
360
330
256
100
AcDbEntity
  8
0
  6
CONTINUOUS
 62
     7
100
AcDbVertex
100
AcDb2dVertex
 10
8.7122890474
 20
6.8915659689
 30
0.0
  0
VERTEX
  5
361
330
256
100
AcDbEntity
  8
0
  6
CONTINUOUS
 62
     7
100
AcDbVertex
100
AcDb2dVertex
 10
8.7321121112
 20
6.905543149
 30
0.0
  0
VERTEX
  5
362
330
256
100
AcDbEntity
  8
0
  6
CONTINUOUS
 62
     7
100
AcDbVertex
100
AcDb2dVertex
 10
8.7520259374
 20
6.9183078671
 30
0.0
  0
VERTEX
  5
363
330
256
100
AcDbEntity
  8
0
  6
CONTINUOUS
 62
     7
100
AcDbVertex
100
AcDb2dVertex
 10
8.7719700485
 20
6.9298213574
 30
0.0
  0
VERTEX
  5
364
330
256
100
AcDbEntity
  8
0
  6
CONTINUOUS
 62
     7
100
AcDbVertex
100
AcDb2dVertex
 10
8.7918838747
 20
6.9400486536
 30
0.0
  0
VERTEX
  5
365
330
256
100
AcDbEntity
  8
0
  6
CONTINUOUS
 62
     7
100
AcDbVertex
100
AcDb2dVertex
 10
8.8117069386
 20
6.9489586958
 30
0.0
  0
VERTEX
  5
366
330
256
100
AcDbEntity
  8
0
  6
CONTINUOUS
 62
     7
100
AcDbVertex
100
AcDb2dVertex
 10
8.8313790379
 20
6.9565244246
 30
0.0
  0
VERTEX
  5
367
330
256
100
AcDbEntity
  8
0
  6
CONTINUOUS
 62
     7
100
AcDbVertex
100
AcDb2dVertex
 10
8.8508404294
 20
6.962722863
 30
0.0
  0
VERTEX
  5
368
330
256
100
AcDbEntity
  8
0
  6
CONTINUOUS
 62
     7
100
AcDbVertex
100
AcDb2dVertex
 10
8.8700320092
 20
6.9675351867
 30
0.0
  0
VERTEX
  5
369
330
256
100
AcDbEntity
  8
0
  6
CONTINUOUS
 62
     7
100
AcDbVertex
100
AcDb2dVertex
 10
8.8888954933
 20
6.9709467806
 30
0.0
  0
VERTEX
  5
36A
330
256
100
AcDbEntity
  8
0
  6
CONTINUOUS
 62
     7
100
AcDbVertex
100
AcDb2dVertex
 10
8.9073735939
 20
6.972947284
 30
0.0
  0
VERTEX
  5
36B
330
256
100
AcDbEntity
  8
0
  6
CONTINUOUS
 62
     7
100
AcDbVertex
100
AcDb2dVertex
 10
8.9254101935
 20
6.9735306213
 30
0.0
  0
VERTEX
  5
36C
330
256
100
AcDbEntity
  8
0
  6
CONTINUOUS
 62
     7
100
AcDbVertex
100
AcDb2dVertex
 10
8.9429505157
 20
6.972695021
 30
0.0
  0
VERTEX
  5
36D
330
256
100
AcDbEntity
  8
0
  6
CONTINUOUS
 62
     7
100
AcDbVertex
100
AcDb2dVertex
 10
8.959941291
 20
6.9704430209
 30
0.0
  0
VERTEX
  5
36E
330
256
100
AcDbEntity
  8
0
  6
CONTINUOUS
 62
     7
100
AcDbVertex
100
AcDb2dVertex
 10
8.976330919
 20
6.96678146
 30
0.0
  0
VERTEX
  5
36F
330
256
100
AcDbEntity
  8
0
  6
CONTINUOUS
 62
     7
100
AcDbVertex
100
AcDb2dVertex
 10
8.992069625
 20
6.9617214585
 30
0.0
  0
VERTEX
  5
370
330
256
100
AcDbEntity
  8
0
  6
CONTINUOUS
 62
     7
100
AcDbVertex
100
AcDb2dVertex
 10
9.007109611
 20
6.9552783834
 30
0.0
  0
VERTEX
  5
371
330
256
100
AcDbEntity
  8
0
  6
CONTINUOUS
 62
     7
100
AcDbVertex
100
AcDb2dVertex
 10
9.021405201
 20
6.9474718022
 30
0.0
  0
VERTEX
  5
372
330
256
100
AcDbEntity
  8
0
  6
CONTINUOUS
 62
     7
100
AcDbVertex
100
AcDb2dVertex
 10
9.0349129799
 20
6.9383254232
 30
0.0
  0
VERTEX
  5
373
330
256
100
AcDbEntity
  8
0
  6
CONTINUOUS
 62
     7
100
AcDbVertex
100
AcDb2dVertex
 10
9.0475919249
 20
6.9278670235
 30
0.0
  0
VERTEX
  5
374
330
256
100
AcDbEntity
  8
0
  6
CONTINUOUS
 62
     7
100
AcDbVertex
100
AcDb2dVertex
 10
9.0594035306
 20
6.9161283651
 30
0.0
  0
VERTEX
  5
375
330
256
100
AcDbEntity
  8
0
  6
CONTINUOUS
 62
     7
100
AcDbVertex
100
AcDb2dVertex
 10
9.0703119254
 20
6.9031450979
 30
0.0
  0
VERTEX
  5
376
330
256
100
AcDbEntity
  8
0
  6
CONTINUOUS
 62
     7
100
AcDbVertex
100
AcDb2dVertex
 10
9.0802839809
 20
6.8889566515
 30
0.0
  0
VERTEX
  5
377
330
256
100
AcDbEntity
  8
0
  6
CONTINUOUS
 62
     7
100
AcDbVertex
100
AcDb2dVertex
 10
9.0892894123
 20
6.8736061159
 30
0.0
  0
VERTEX
  5
378
330
256
100
AcDbEntity
  8
0
  6
CONTINUOUS
 62
     7
100
AcDbVertex
100
AcDb2dVertex
 10
9.0973008705
 20
6.8571401102
 30
0.0
  0
VERTEX
  5
379
330
256
100
AcDbEntity
  8
0
  6
CONTINUOUS
 62
     7
100
AcDbVertex
100
AcDb2dVertex
 10
9.1042940248
 20
6.839608641
 30
0.0
  0
VERTEX
  5
37A
330
256
100
AcDbEntity
  8
0
  6
CONTINUOUS
 62
     7
100
AcDbVertex
100
AcDb2dVertex
 10
9.1102476374
 20
6.8210649508
 30
0.0
  0
VERTEX
  5
37B
330
256
100
AcDbEntity
  8
0
  6
CONTINUOUS
 62
     7
100
AcDbVertex
100
AcDb2dVertex
 10
9.1151436272
 20
6.8015653562
 30
0.0
  0
VERTEX
  5
37C
330
256
100
AcDbEntity
  8
0
  6
CONTINUOUS
 62
     7
100
AcDbVertex
100
AcDb2dVertex
 10
9.1189671253
 20
6.7811690769
 30
0.0
  0
VERTEX
  5
37D
330
256
100
AcDbEntity
  8
0
  6
CONTINUOUS
 62
     7
100
AcDbVertex
100
AcDb2dVertex
 10
9.12170652
 20
6.7599380557
 30
0.0
  0
VERTEX
  5
37E
330
256
100
AcDbEntity
  8
0
  6
CONTINUOUS
 62
     7
100
AcDbVertex
100
AcDb2dVertex
 10
9.1233534916
 20
6.7379367705
 30
0.0
  0
VERTEX
  5
37F
330
256
100
AcDbEntity
  8
0
  6
CONTINUOUS
 62
     7
100
AcDbVertex
100
AcDb2dVertex
 10
9.1239030385
 20
6.7152320384
 30
0.0
  0
VERTEX
  5
380
330
256
100
AcDbEntity
  8
0
  6
CONTINUOUS
 62
     7
100
AcDbVertex
100
AcDb2dVertex
 10
9.1239030385
 20
6.7152320384
 30
0.0
  0
SEQEND
  5
381
330
256
100
AcDbEntity
  8
0
  6
CONTINUOUS
 62
     7
  0
POLYLINE
  5
257
330
1F
100
AcDbEntity
  8
0
  6
CONTINUOUS
 62
     7
100
AcDb2dPolyline
 66
     1
 10
0.0
 20
0.0
 30
0.0
  0
VERTEX
  5
382
330
257
100
AcDbEntity
  8
0
  6
CONTINUOUS
 62
     7
100
AcDbVertex
100
AcDb2dVertex
 10
7.9920647924
 20
6.359809222
 30
0.0
  0
VERTEX
  5
383
330
257
100
AcDbEntity
  8
0
  6
CONTINUOUS
 62
     7
100
AcDbVertex
100
AcDb2dVertex
 10
7.9831045283
 20
6.3653574591
 30
0.0
  0
VERTEX
  5
384
330
257
100
AcDbEntity
  8
0
  6
CONTINUOUS
 62
     7
100
AcDbVertex
100
AcDb2dVertex
 10
7.9698208309
 20
6.375106197
 30
0.0
  0
VERTEX
  5
385
330
257
100
AcDbEntity
  8
0
  6
CONTINUOUS
 62
     7
100
AcDbVertex
100
AcDb2dVertex
 10
7.957394935
 20
6.3861748333
 30
0.0
  0
VERTEX
  5
386
330
257
100
AcDbEntity
  8
0
  6
CONTINUOUS
 62
     7
100
AcDbVertex
100
AcDb2dVertex
 10
7.9458651644
 20
6.3985292304
 30
0.0
  0
VERTEX
  5
387
330
257
100
AcDbEntity
  8
0
  6
CONTINUOUS
 62
     7
100
AcDbVertex
100
AcDb2dVertex
 10
7.9352670791
 20
6.4121312848
 30
0.0
  0
VERTEX
  5
388
330
257
100
AcDbEntity
  8
0
  6
CONTINUOUS
 62
     7
100
AcDbVertex
100
AcDb2dVertex
 10
7.9256333656
 20
6.4269390454
 30
0.0
  0
VERTEX
  5
389
330
257
100
AcDbEntity
  8
0
  6
CONTINUOUS
 62
     7
100
AcDbVertex
100
AcDb2dVertex
 10
7.9169937361
 20
6.4429068421
 30
0.0
  0
VERTEX
  5
38A
330
257
100
AcDbEntity
  8
0
  6
CONTINUOUS
 62
     7
100
AcDbVertex
100
AcDb2dVertex
 10
7.9093748368
 20
6.4599854272
 30
0.0
  0
VERTEX
  5
38B
330
257
100
AcDbEntity
  8
0
  6
CONTINUOUS
 62
     7
100
AcDbVertex
100
AcDb2dVertex
 10
7.9028001658
 20
6.4781221273
 30
0.0
  0
VERTEX
  5
38C
330
257
100
AcDbEntity
  8
0
  6
CONTINUOUS
 62
     7
100
AcDbVertex
100
AcDb2dVertex
 10
7.8972900008
 20
6.4972610051
 30
0.0
  0
VERTEX
  5
38D
330
257
100
AcDbEntity
  8
0
  6
CONTINUOUS
 62
     7
100
AcDbVertex
100
AcDb2dVertex
 10
7.8928613361
 20
6.5173430329
 30
0.0
  0
VERTEX
  5
38E
330
257
100
AcDbEntity
  8
0
  6
CONTINUOUS
 62
     7
100
AcDbVertex
100
AcDb2dVertex
 10
7.8895278304
 20
6.5383062739
 30
0.0
  0
VERTEX
  5
38F
330
257
100
AcDbEntity
  8
0
  6
CONTINUOUS
 62
     7
100
AcDbVertex
100
AcDb2dVertex
 10
7.8872997651
 20
6.5600860734
 30
0.0
  0
VERTEX
  5
390
330
257
100
AcDbEntity
  8
0
  6
CONTINUOUS
 62
     7
100
AcDbVertex
100
AcDb2dVertex
 10
7.8861840119
 20
6.5826152584
 30
0.0
  0
VERTEX
  5
391
330
257
100
AcDbEntity
  8
0
  6
CONTINUOUS
 62
     7
100
AcDbVertex
100
AcDb2dVertex
 10
7.8861840119
 20
6.6058243447
 30
0.0
  0
VERTEX
  5
392
330
257
100
AcDbEntity
  8
0
  6
CONTINUOUS
 62
     7
100
AcDbVertex
100
AcDb2dVertex
 10
7.8872997651
 20
6.629641751
 30
0.0
  0
VERTEX
  5
393
330
257
100
AcDbEntity
  8
0
  6
CONTINUOUS
 62
     7
100
AcDbVertex
100
AcDb2dVertex
 10
7.8895278304
 20
6.6539940199
 30
0.0
  0
VERTEX
  5
394
330
257
100
AcDbEntity
  8
0
  6
CONTINUOUS
 62
     7
100
AcDbVertex
100
AcDb2dVertex
 10
7.8928613361
 20
6.6788060445
 30
0.0
  0
VERTEX
  5
395
330
257
100
AcDbEntity
  8
0
  6
CONTINUOUS
 62
     7
100
AcDbVertex
100
AcDb2dVertex
 10
7.8972900008
 20
6.7040012998
 30
0.0
  0
VERTEX
  5
396
330
257
100
AcDbEntity
  8
0
  6
CONTINUOUS
 62
     7
100
AcDbVertex
100
AcDb2dVertex
 10
7.9028001658
 20
6.7295020788
 30
0.0
  0
VERTEX
  5
397
330
257
100
AcDbEntity
  8
0
  6
CONTINUOUS
 62
     7
100
AcDbVertex
100
AcDb2dVertex
 10
7.9093748368
 20
6.7552297323
 30
0.0
  0
VERTEX
  5
398
330
257
100
AcDbEntity
  8
0
  6
CONTINUOUS
 62
     7
100
AcDbVertex
100
AcDb2dVertex
 10
7.9169937361
 20
6.7811049113
 30
0.0
  0
VERTEX
  5
399
330
257
100
AcDbEntity
  8
0
  6
CONTINUOUS
 62
     7
100
AcDbVertex
100
AcDb2dVertex
 10
7.9256333656
 20
6.807047812
 30
0.0
  0
VERTEX
  5
39A
330
257
100
AcDbEntity
  8
0
  6
CONTINUOUS
 62
     7
100
AcDbVertex
100
AcDb2dVertex
 10
7.9352670791
 20
6.8329784214
 30
0.0
  0
VERTEX
  5
39B
330
257
100
AcDbEntity
  8
0
  6
CONTINUOUS
 62
     7
100
AcDbVertex
100
AcDb2dVertex
 10
7.9458651644
 20
6.8588167647
 30
0.0
  0
VERTEX
  5
39C
330
257
100
AcDbEntity
  8
0
  6
CONTINUOUS
 62
     7
100
AcDbVertex
100
AcDb2dVertex
 10
7.957394935
 20
6.8844831515
 30
0.0
  0
VERTEX
  5
39D
330
257
100
AcDbEntity
  8
0
  6
CONTINUOUS
 62
     7
100
AcDbVertex
100
AcDb2dVertex
 10
7.9698208309
 20
6.9098984218
 30
0.0
  0
VERTEX
  5
39E
330
257
100
AcDbEntity
  8
0
  6
CONTINUOUS
 62
     7
100
AcDbVertex
100
AcDb2dVertex
 10
7.9831045283
 20
6.9349841902
 30
0.0
  0
VERTEX
  5
39F
330
257
100
AcDbEntity
  8
0
  6
CONTINUOUS
 62
     7
100
AcDbVertex
100
AcDb2dVertex
 10
7.9972050577
 20
6.9596630874
 30
0.0
  0
VERTEX
  5
3A0
330
257
100
AcDbEntity
  8
0
  6
CONTINUOUS
 62
     7
100
AcDbVertex
100
AcDb2dVertex
 10
8.0120789304
 20
6.983858999
 30
0.0
  0
VERTEX
  5
3A1
330
257
100
AcDbEntity
  8
0
  6
CONTINUOUS
 62
     7
100
AcDbVertex
100
AcDb2dVertex
 10
8.0276802727
 20
7.0074973001
 30
0.0
  0
VERTEX
  5
3A2
330
257
100
AcDbEntity
  8
0
  6
CONTINUOUS
 62
     7
100
AcDbVertex
100
AcDb2dVertex
 10
8.043960967
 20
7.0305050859
 30
0.0
  0
VERTEX
  5
3A3
330
257
100
AcDbEntity
  8
0
  6
CONTINUOUS
 62
     7
100
AcDbVertex
100
AcDb2dVertex
 10
8.0608708005
 20
7.0528113959
 30
0.0
  0
VERTEX
  5
3A4
330
257
100
AcDbEntity
  8
0
  6
CONTINUOUS
 62
     7
100
AcDbVertex
100
AcDb2dVertex
 10
8.0783576202
 20
7.0743474334
 30
0.0
  0
VERTEX
  5
3A5
330
257
100
AcDbEntity
  8
0
  6
CONTINUOUS
 62
     7
100
AcDbVertex
100
AcDb2dVertex
 10
8.0963674933
 20
7.0950467769
 30
0.0
  0
VERTEX
  5
3A6
330
257
100
AcDbEntity
  8
0
  6
CONTINUOUS
 62
     7
100
AcDbVertex
100
AcDb2dVertex
 10
8.1148448741
 20
7.114845586
 30
0.0
  0
VERTEX
  5
3A7
330
257
100
AcDbEntity
  8
0
  6
CONTINUOUS
 62
     7
100
AcDbVertex
100
AcDb2dVertex
 10
8.1337327748
 20
7.1336827972
 30
0.0
  0
VERTEX
  5
3A8
330
257
100
AcDbEntity
  8
0
  6
CONTINUOUS
 62
     7
100
AcDbVertex
100
AcDb2dVertex
 10
8.1529729415
 20
7.1515003131
 30
0.0
  0
VERTEX
  5
3A9
330
257
100
AcDbEntity
  8
0
  6
CONTINUOUS
 62
     7
100
AcDbVertex
100
AcDb2dVertex
 10
8.1725060338
 20
7.168243181
 30
0.0
  0
VERTEX
  5
3AA
330
257
100
AcDbEntity
  8
0
  6
CONTINUOUS
 62
     7
100
AcDbVertex
100
AcDb2dVertex
 10
8.1922718082
 20
7.1838597629
 30
0.0
  0
SEQEND
  5
3AB
330
257
100
AcDbEntity
  8
0
  6
CONTINUOUS
 62
     7
  0
LINE
  5
258
330
1F
100
AcDbEntity
  8
0
  6
CONTINUOUS
 62
     7
100
AcDbLine
 10
8.1408098059
 20
7.2135681445
 30
0.0
 11
8.1922718082
 21
7.1838597629
 31
0.0
  0
POLYLINE
  5
259
330
1F
100
AcDbEntity
  8
0
  6
CONTINUOUS
 62
     7
100
AcDb2dPolyline
 66
     1
 10
0.0
 20
0.0
 30
0.0
  0
VERTEX
  5
3AC
330
259
100
AcDbEntity
  8
0
  6
CONTINUOUS
 62
     7
100
AcDbVertex
100
AcDb2dVertex
 10
8.1408098059
 20
7.2135681445
 30
0.0
  0
VERTEX
  5
3AD
330
259
100
AcDbEntity
  8
0
  6
CONTINUOUS
 62
     7
100
AcDbVertex
100
AcDb2dVertex
 10
8.1210440315
 20
7.1979515626
 30
0.0
  0
VERTEX
  5
3AE
330
259
100
AcDbEntity
  8
0
  6
CONTINUOUS
 62
     7
100
AcDbVertex
100
AcDb2dVertex
 10
8.1015109392
 20
7.1812086946
 30
0.0
  0
VERTEX
  5
3AF
330
259
100
AcDbEntity
  8
0
  6
CONTINUOUS
 62
     7
100
AcDbVertex
100
AcDb2dVertex
 10
8.0822707725
 20
7.1633911788
 30
0.0
  0
VERTEX
  5
3B0
330
259
100
AcDbEntity
  8
0
  6
CONTINUOUS
 62
     7
100
AcDbVertex
100
AcDb2dVertex
 10
8.0633828718
 20
7.1445539675
 30
0.0
  0
VERTEX
  5
3B1
330
259
100
AcDbEntity
  8
0
  6
CONTINUOUS
 62
     7
100
AcDbVertex
100
AcDb2dVertex
 10
8.044905491
 20
7.1247551585
 30
0.0
  0
VERTEX
  5
3B2
330
259
100
AcDbEntity
  8
0
  6
CONTINUOUS
 62
     7
100
AcDbVertex
100
AcDb2dVertex
 10
8.0268956179
 20
7.1040558149
 30
0.0
  0
VERTEX
  5
3B3
330
259
100
AcDbEntity
  8
0
  6
CONTINUOUS
 62
     7
100
AcDbVertex
100
AcDb2dVertex
 10
8.0094087982
 20
7.0825197775
 30
0.0
  0
VERTEX
  5
3B4
330
259
100
AcDbEntity
  8
0
  6
CONTINUOUS
 62
     7
100
AcDbVertex
100
AcDb2dVertex
 10
7.9924989647
 20
7.0602134675
 30
0.0
  0
VERTEX
  5
3B5
330
259
100
AcDbEntity
  8
0
  6
CONTINUOUS
 62
     7
100
AcDbVertex
100
AcDb2dVertex
 10
7.9762182704
 20
7.0372056817
 30
0.0
  0
VERTEX
  5
3B6
330
259
100
AcDbEntity
  8
0
  6
CONTINUOUS
 62
     7
100
AcDbVertex
100
AcDb2dVertex
 10
7.9606169281
 20
7.0135673805
 30
0.0
  0
VERTEX
  5
3B7
330
259
100
AcDbEntity
  8
0
  6
CONTINUOUS
 62
     7
100
AcDbVertex
100
AcDb2dVertex
 10
7.9457430554
 20
6.989371469
 30
0.0
  0
VERTEX
  5
3B8
330
259
100
AcDbEntity
  8
0
  6
CONTINUOUS
 62
     7
100
AcDbVertex
100
AcDb2dVertex
 10
7.931642526
 20
6.9646925718
 30
0.0
  0
VERTEX
  5
3B9
330
259
100
AcDbEntity
  8
0
  6
CONTINUOUS
 62
     7
100
AcDbVertex
100
AcDb2dVertex
 10
7.9183588286
 20
6.9396068034
 30
0.0
  0
VERTEX
  5
3BA
330
259
100
AcDbEntity
  8
0
  6
CONTINUOUS
 62
     7
100
AcDbVertex
100
AcDb2dVertex
 10
7.9059329327
 20
6.9141915331
 30
0.0
  0
VERTEX
  5
3BB
330
259
100
AcDbEntity
  8
0
  6
CONTINUOUS
 62
     7
100
AcDbVertex
100
AcDb2dVertex
 10
7.8944031621
 20
6.8885251462
 30
0.0
  0
VERTEX
  5
3BC
330
259
100
AcDbEntity
  8
0
  6
CONTINUOUS
 62
     7
100
AcDbVertex
100
AcDb2dVertex
 10
7.8838050768
 20
6.8626868029
 30
0.0
  0
VERTEX
  5
3BD
330
259
100
AcDbEntity
  8
0
  6
CONTINUOUS
 62
     7
100
AcDbVertex
100
AcDb2dVertex
 10
7.8741713633
 20
6.8367561935
 30
0.0
  0
VERTEX
  5
3BE
330
259
100
AcDbEntity
  8
0
  6
CONTINUOUS
 62
     7
100
AcDbVertex
100
AcDb2dVertex
 10
7.8655317338
 20
6.8108132929
 30
0.0
  0
VERTEX
  5
3BF
330
259
100
AcDbEntity
  8
0
  6
CONTINUOUS
 62
     7
100
AcDbVertex
100
AcDb2dVertex
 10
7.8579128345
 20
6.7849381138
 30
0.0
  0
VERTEX
  5
3C0
330
259
100
AcDbEntity
  8
0
  6
CONTINUOUS
 62
     7
100
AcDbVertex
100
AcDb2dVertex
 10
7.8513381635
 20
6.7592104604
 30
0.0
  0
VERTEX
  5
3C1
330
259
100
AcDbEntity
  8
0
  6
CONTINUOUS
 62
     7
100
AcDbVertex
100
AcDb2dVertex
 10
7.8458279985
 20
6.7337096814
 30
0.0
  0
VERTEX
  5
3C2
330
259
100
AcDbEntity
  8
0
  6
CONTINUOUS
 62
     7
100
AcDbVertex
100
AcDb2dVertex
 10
7.8413993338
 20
6.7085144261
 30
0.0
  0
VERTEX
  5
3C3
330
259
100
AcDbEntity
  8
0
  6
CONTINUOUS
 62
     7
100
AcDbVertex
100
AcDb2dVertex
 10
7.8380658281
 20
6.6837024015
 30
0.0
  0
VERTEX
  5
3C4
330
259
100
AcDbEntity
  8
0
  6
CONTINUOUS
 62
     7
100
AcDbVertex
100
AcDb2dVertex
 10
7.8358377628
 20
6.6593501325
 30
0.0
  0
VERTEX
  5
3C5
330
259
100
AcDbEntity
  8
0
  6
CONTINUOUS
 62
     7
100
AcDbVertex
100
AcDb2dVertex
 10
7.8347220096
 20
6.6355327262
 30
0.0
  0
VERTEX
  5
3C6
330
259
100
AcDbEntity
  8
0
  6
CONTINUOUS
 62
     7
100
AcDbVertex
100
AcDb2dVertex
 10
7.8347220096
 20
6.6123236399
 30
0.0
  0
VERTEX
  5
3C7
330
259
100
AcDbEntity
  8
0
  6
CONTINUOUS
 62
     7
100
AcDbVertex
100
AcDb2dVertex
 10
7.8358377628
 20
6.5897944549
 30
0.0
  0
VERTEX
  5
3C8
330
259
100
AcDbEntity
  8
0
  6
CONTINUOUS
 62
     7
100
AcDbVertex
100
AcDb2dVertex
 10
7.8380658281
 20
6.5680146554
 30
0.0
  0
VERTEX
  5
3C9
330
259
100
AcDbEntity
  8
0
  6
CONTINUOUS
 62
     7
100
AcDbVertex
100
AcDb2dVertex
 10
7.8413993338
 20
6.5470514145
 30
0.0
  0
VERTEX
  5
3CA
330
259
100
AcDbEntity
  8
0
  6
CONTINUOUS
 62
     7
100
AcDbVertex
100
AcDb2dVertex
 10
7.8458279985
 20
6.5269693867
 30
0.0
  0
VERTEX
  5
3CB
330
259
100
AcDbEntity
  8
0
  6
CONTINUOUS
 62
     7
100
AcDbVertex
100
AcDb2dVertex
 10
7.8513381635
 20
6.5078305088
 30
0.0
  0
VERTEX
  5
3CC
330
259
100
AcDbEntity
  8
0
  6
CONTINUOUS
 62
     7
100
AcDbVertex
100
AcDb2dVertex
 10
7.8579128345
 20
6.4896938088
 30
0.0
  0
VERTEX
  5
3CD
330
259
100
AcDbEntity
  8
0
  6
CONTINUOUS
 62
     7
100
AcDbVertex
100
AcDb2dVertex
 10
7.8655317338
 20
6.4726152237
 30
0.0
  0
VERTEX
  5
3CE
330
259
100
AcDbEntity
  8
0
  6
CONTINUOUS
 62
     7
100
AcDbVertex
100
AcDb2dVertex
 10
7.8741713633
 20
6.456647427
 30
0.0
  0
VERTEX
  5
3CF
330
259
100
AcDbEntity
  8
0
  6
CONTINUOUS
 62
     7
100
AcDbVertex
100
AcDb2dVertex
 10
7.8838050768
 20
6.4418396664
 30
0.0
  0
VERTEX
  5
3D0
330
259
100
AcDbEntity
  8
0
  6
CONTINUOUS
 62
     7
100
AcDbVertex
100
AcDb2dVertex
 10
7.8944031621
 20
6.428237612
 30
0.0
  0
VERTEX
  5
3D1
330
259
100
AcDbEntity
  8
0
  6
CONTINUOUS
 62
     7
100
AcDbVertex
100
AcDb2dVertex
 10
7.9059329327
 20
6.4158832149
 30
0.0
  0
VERTEX
  5
3D2
330
259
100
AcDbEntity
  8
0
  6
CONTINUOUS
 62
     7
100
AcDbVertex
100
AcDb2dVertex
 10
7.9183588286
 20
6.4048145786
 30
0.0
  0
VERTEX
  5
3D3
330
259
100
AcDbEntity
  8
0
  6
CONTINUOUS
 62
     7
100
AcDbVertex
100
AcDb2dVertex
 10
7.931642526
 20
6.3950658407
 30
0.0
  0
VERTEX
  5
3D4
330
259
100
AcDbEntity
  8
0
  6
CONTINUOUS
 62
     7
100
AcDbVertex
100
AcDb2dVertex
 10
7.9457430554
 20
6.3866670683
 30
0.0
  0
VERTEX
  5
3D5
330
259
100
AcDbEntity
  8
0
  6
CONTINUOUS
 62
     7
100
AcDbVertex
100
AcDb2dVertex
 10
7.9606169281
 20
6.3796441647
 30
0.0
  0
VERTEX
  5
3D6
330
259
100
AcDbEntity
  8
0
  6
CONTINUOUS
 62
     7
100
AcDbVertex
100
AcDb2dVertex
 10
7.967630372
 20
6.3769093998
 30
0.0
  0
SEQEND
  5
3D7
330
259
100
AcDbEntity
  8
0
  6
CONTINUOUS
 62
     7
  0
POLYLINE
  5
25A
330
1F
100
AcDbEntity
  8
0
  6
CONTINUOUS
 62
     7
100
AcDb2dPolyline
 66
     1
 10
0.0
 20
0.0
 30
0.0
  0
VERTEX
  5
3D8
330
25A
100
AcDbEntity
  8
0
  6
CONTINUOUS
 62
     7
100
AcDbVertex
100
AcDb2dVertex
 10
7.8320377921
 20
7.3918184339
 30
0.0
  0
VERTEX
  5
3D9
330
25A
100
AcDbEntity
  8
0
  6
CONTINUOUS
 62
     7
100
AcDbVertex
100
AcDb2dVertex
 10
7.8122720177
 20
7.376201852
 30
0.0
  0
VERTEX
  5
3DA
330
25A
100
AcDbEntity
  8
0
  6
CONTINUOUS
 62
     7
100
AcDbVertex
100
AcDb2dVertex
 10
7.7927389253
 20
7.3594589841
 30
0.0
  0
VERTEX
  5
3DB
330
25A
100
AcDbEntity
  8
0
  6
CONTINUOUS
 62
     7
100
AcDbVertex
100
AcDb2dVertex
 10
7.7734987587
 20
7.3416414682
 30
0.0
  0
VERTEX
  5
3DC
330
25A
100
AcDbEntity
  8
0
  6
CONTINUOUS
 62
     7
100
AcDbVertex
100
AcDb2dVertex
 10
7.754610858
 20
7.3228042569
 30
0.0
  0
VERTEX
  5
3DD
330
25A
100
AcDbEntity
  8
0
  6
CONTINUOUS
 62
     7
100
AcDbVertex
100
AcDb2dVertex
 10
7.7361334772
 20
7.3030054479
 30
0.0
  0
VERTEX
  5
3DE
330
25A
100
AcDbEntity
  8
0
  6
CONTINUOUS
 62
     7
100
AcDbVertex
100
AcDb2dVertex
 10
7.7181236041
 20
7.2823061043
 30
0.0
  0
VERTEX
  5
3DF
330
25A
100
AcDbEntity
  8
0
  6
CONTINUOUS
 62
     7
100
AcDbVertex
100
AcDb2dVertex
 10
7.7006367844
 20
7.2607700669
 30
0.0
  0
VERTEX
  5
3E0
330
25A
100
AcDbEntity
  8
0
  6
CONTINUOUS
 62
     7
100
AcDbVertex
100
AcDb2dVertex
 10
7.6837269508
 20
7.2384637569
 30
0.0
  0
VERTEX
  5
3E1
330
25A
100
AcDbEntity
  8
0
  6
CONTINUOUS
 62
     7
100
AcDbVertex
100
AcDb2dVertex
 10
7.6674462566
 20
7.2154559711
 30
0.0
  0
VERTEX
  5
3E2
330
25A
100
AcDbEntity
  8
0
  6
CONTINUOUS
 62
     7
100
AcDbVertex
100
AcDb2dVertex
 10
7.6518449143
 20
7.1918176699
 30
0.0
  0
VERTEX
  5
3E3
330
25A
100
AcDbEntity
  8
0
  6
CONTINUOUS
 62
     7
100
AcDbVertex
100
AcDb2dVertex
 10
7.6369710416
 20
7.1676217584
 30
0.0
  0
VERTEX
  5
3E4
330
25A
100
AcDbEntity
  8
0
  6
CONTINUOUS
 62
     7
100
AcDbVertex
100
AcDb2dVertex
 10
7.6228705121
 20
7.1429428612
 30
0.0
  0
VERTEX
  5
3E5
330
25A
100
AcDbEntity
  8
0
  6
CONTINUOUS
 62
     7
100
AcDbVertex
100
AcDb2dVertex
 10
7.6095868148
 20
7.1178570928
 30
0.0
  0
VERTEX
  5
3E6
330
25A
100
AcDbEntity
  8
0
  6
CONTINUOUS
 62
     7
100
AcDbVertex
100
AcDb2dVertex
 10
7.5971609189
 20
7.0924418225
 30
0.0
  0
VERTEX
  5
3E7
330
25A
100
AcDbEntity
  8
0
  6
CONTINUOUS
 62
     7
100
AcDbVertex
100
AcDb2dVertex
 10
7.5856311483
 20
7.0667754356
 30
0.0
  0
VERTEX
  5
3E8
330
25A
100
AcDbEntity
  8
0
  6
CONTINUOUS
 62
     7
100
AcDbVertex
100
AcDb2dVertex
 10
7.575033063
 20
7.0409370924
 30
0.0
  0
VERTEX
  5
3E9
330
25A
100
AcDbEntity
  8
0
  6
CONTINUOUS
 62
     7
100
AcDbVertex
100
AcDb2dVertex
 10
7.5653993495
 20
7.0150064829
 30
0.0
  0
VERTEX
  5
3EA
330
25A
100
AcDbEntity
  8
0
  6
CONTINUOUS
 62
     7
100
AcDbVertex
100
AcDb2dVertex
 10
7.5567597199
 20
6.9890635823
 30
0.0
  0
VERTEX
  5
3EB
330
25A
100
AcDbEntity
  8
0
  6
CONTINUOUS
 62
     7
100
AcDbVertex
100
AcDb2dVertex
 10
7.5491408206
 20
6.9631884033
 30
0.0
  0
VERTEX
  5
3EC
330
25A
100
AcDbEntity
  8
0
  6
CONTINUOUS
 62
     7
100
AcDbVertex
100
AcDb2dVertex
 10
7.5425661497
 20
6.9374607498
 30
0.0
  0
VERTEX
  5
3ED
330
25A
100
AcDbEntity
  8
0
  6
CONTINUOUS
 62
     7
100
AcDbVertex
100
AcDb2dVertex
 10
7.5370559847
 20
6.9119599708
 30
0.0
  0
VERTEX
  5
3EE
330
25A
100
AcDbEntity
  8
0
  6
CONTINUOUS
 62
     7
100
AcDbVertex
100
AcDb2dVertex
 10
7.5326273199
 20
6.8867647155
 30
0.0
  0
VERTEX
  5
3EF
330
25A
100
AcDbEntity
  8
0
  6
CONTINUOUS
 62
     7
100
AcDbVertex
100
AcDb2dVertex
 10
7.5292938143
 20
6.8619526909
 30
0.0
  0
VERTEX
  5
3F0
330
25A
100
AcDbEntity
  8
0
  6
CONTINUOUS
 62
     7
100
AcDbVertex
100
AcDb2dVertex
 10
7.527065749
 20
6.8376004219
 30
0.0
  0
VERTEX
  5
3F1
330
25A
100
AcDbEntity
  8
0
  6
CONTINUOUS
 62
     7
100
AcDbVertex
100
AcDb2dVertex
 10
7.5259499957
 20
6.8137830156
 30
0.0
  0
VERTEX
  5
3F2
330
25A
100
AcDbEntity
  8
0
  6
CONTINUOUS
 62
     7
100
AcDbVertex
100
AcDb2dVertex
 10
7.5259499957
 20
6.7905739294
 30
0.0
  0
VERTEX
  5
3F3
330
25A
100
AcDbEntity
  8
0
  6
CONTINUOUS
 62
     7
100
AcDbVertex
100
AcDb2dVertex
 10
7.527065749
 20
6.7680447443
 30
0.0
  0
VERTEX
  5
3F4
330
25A
100
AcDbEntity
  8
0
  6
CONTINUOUS
 62
     7
100
AcDbVertex
100
AcDb2dVertex
 10
7.5292938143
 20
6.7462649449
 30
0.0
  0
VERTEX
  5
3F5
330
25A
100
AcDbEntity
  8
0
  6
CONTINUOUS
 62
     7
100
AcDbVertex
100
AcDb2dVertex
 10
7.5326273199
 20
6.7253017039
 30
0.0
  0
VERTEX
  5
3F6
330
25A
100
AcDbEntity
  8
0
  6
CONTINUOUS
 62
     7
100
AcDbVertex
100
AcDb2dVertex
 10
7.5370559847
 20
6.7052196761
 30
0.0
  0
VERTEX
  5
3F7
330
25A
100
AcDbEntity
  8
0
  6
CONTINUOUS
 62
     7
100
AcDbVertex
100
AcDb2dVertex
 10
7.5425661497
 20
6.6860807982
 30
0.0
  0
VERTEX
  5
3F8
330
25A
100
AcDbEntity
  8
0
  6
CONTINUOUS
 62
     7
100
AcDbVertex
100
AcDb2dVertex
 10
7.5491408206
 20
6.6679440982
 30
0.0
  0
VERTEX
  5
3F9
330
25A
100
AcDbEntity
  8
0
  6
CONTINUOUS
 62
     7
100
AcDbVertex
100
AcDb2dVertex
 10
7.5567597199
 20
6.6508655131
 30
0.0
  0
VERTEX
  5
3FA
330
25A
100
AcDbEntity
  8
0
  6
CONTINUOUS
 62
     7
100
AcDbVertex
100
AcDb2dVertex
 10
7.5653993495
 20
6.6348977164
 30
0.0
  0
VERTEX
  5
3FB
330
25A
100
AcDbEntity
  8
0
  6
CONTINUOUS
 62
     7
100
AcDbVertex
100
AcDb2dVertex
 10
7.575033063
 20
6.6200899558
 30
0.0
  0
VERTEX
  5
3FC
330
25A
100
AcDbEntity
  8
0
  6
CONTINUOUS
 62
     7
100
AcDbVertex
100
AcDb2dVertex
 10
7.5856311483
 20
6.6064879014
 30
0.0
  0
VERTEX
  5
3FD
330
25A
100
AcDbEntity
  8
0
  6
CONTINUOUS
 62
     7
100
AcDbVertex
100
AcDb2dVertex
 10
7.5971609189
 20
6.5941335043
 30
0.0
  0
VERTEX
  5
3FE
330
25A
100
AcDbEntity
  8
0
  6
CONTINUOUS
 62
     7
100
AcDbVertex
100
AcDb2dVertex
 10
7.6095868148
 20
6.583064868
 30
0.0
  0
VERTEX
  5
3FF
330
25A
100
AcDbEntity
  8
0
  6
CONTINUOUS
 62
     7
100
AcDbVertex
100
AcDb2dVertex
 10
7.6228705121
 20
6.5733161301
 30
0.0
  0
VERTEX
  5
400
330
25A
100
AcDbEntity
  8
0
  6
CONTINUOUS
 62
     7
100
AcDbVertex
100
AcDb2dVertex
 10
7.6369710416
 20
6.5649173577
 30
0.0
  0
VERTEX
  5
401
330
25A
100
AcDbEntity
  8
0
  6
CONTINUOUS
 62
     7
100
AcDbVertex
100
AcDb2dVertex
 10
7.6518449143
 20
6.5578944541
 30
0.0
  0
VERTEX
  5
402
330
25A
100
AcDbEntity
  8
0
  6
CONTINUOUS
 62
     7
100
AcDbVertex
100
AcDb2dVertex
 10
7.6588583582
 20
6.5551596892
 30
0.0
  0
SEQEND
  5
403
330
25A
100
AcDbEntity
  8
0
  6
CONTINUOUS
 62
     7
  0
POLYLINE
  5
25B
330
1F
100
AcDbEntity
  8
0
  6
CONTINUOUS
 62
     7
100
AcDb2dPolyline
 66
     1
 10
0.0
 20
0.0
 30
0.0
  0
VERTEX
  5
404
330
25B
100
AcDbEntity
  8
0
  6
CONTINUOUS
 62
     7
100
AcDbVertex
100
AcDb2dVertex
 10
7.6832927786
 20
6.5380595114
 30
0.0
  0
VERTEX
  5
405
330
25B
100
AcDbEntity
  8
0
  6
CONTINUOUS
 62
     7
100
AcDbVertex
100
AcDb2dVertex
 10
7.6743325145
 20
6.5436077486
 30
0.0
  0
VERTEX
  5
406
330
25B
100
AcDbEntity
  8
0
  6
CONTINUOUS
 62
     7
100
AcDbVertex
100
AcDb2dVertex
 10
7.6610488171
 20
6.5533564864
 30
0.0
  0
VERTEX
  5
407
330
25B
100
AcDbEntity
  8
0
  6
CONTINUOUS
 62
     7
100
AcDbVertex
100
AcDb2dVertex
 10
7.6486229212
 20
6.5644251228
 30
0.0
  0
VERTEX
  5
408
330
25B
100
AcDbEntity
  8
0
  6
CONTINUOUS
 62
     7
100
AcDbVertex
100
AcDb2dVertex
 10
7.6370931506
 20
6.5767795198
 30
0.0
  0
VERTEX
  5
409
330
25B
100
AcDbEntity
  8
0
  6
CONTINUOUS
 62
     7
100
AcDbVertex
100
AcDb2dVertex
 10
7.6264950653
 20
6.5903815743
 30
0.0
  0
VERTEX
  5
40A
330
25B
100
AcDbEntity
  8
0
  6
CONTINUOUS
 62
     7
100
AcDbVertex
100
AcDb2dVertex
 10
7.6168613518
 20
6.6051893348
 30
0.0
  0
VERTEX
  5
40B
330
25B
100
AcDbEntity
  8
0
  6
CONTINUOUS
 62
     7
100
AcDbVertex
100
AcDb2dVertex
 10
7.6082217222
 20
6.6211571315
 30
0.0
  0
VERTEX
  5
40C
330
25B
100
AcDbEntity
  8
0
  6
CONTINUOUS
 62
     7
100
AcDbVertex
100
AcDb2dVertex
 10
7.6006028229
 20
6.6382357167
 30
0.0
  0
VERTEX
  5
40D
330
25B
100
AcDbEntity
  8
0
  6
CONTINUOUS
 62
     7
100
AcDbVertex
100
AcDb2dVertex
 10
7.594028152
 20
6.6563724167
 30
0.0
  0
VERTEX
  5
40E
330
25B
100
AcDbEntity
  8
0
  6
CONTINUOUS
 62
     7
100
AcDbVertex
100
AcDb2dVertex
 10
7.588517987
 20
6.6755112945
 30
0.0
  0
VERTEX
  5
40F
330
25B
100
AcDbEntity
  8
0
  6
CONTINUOUS
 62
     7
100
AcDbVertex
100
AcDb2dVertex
 10
7.5840893222
 20
6.6955933223
 30
0.0
  0
VERTEX
  5
410
330
25B
100
AcDbEntity
  8
0
  6
CONTINUOUS
 62
     7
100
AcDbVertex
100
AcDb2dVertex
 10
7.5807558166
 20
6.7165565633
 30
0.0
  0
VERTEX
  5
411
330
25B
100
AcDbEntity
  8
0
  6
CONTINUOUS
 62
     7
100
AcDbVertex
100
AcDb2dVertex
 10
7.5785277513
 20
6.7383363628
 30
0.0
  0
VERTEX
  5
412
330
25B
100
AcDbEntity
  8
0
  6
CONTINUOUS
 62
     7
100
AcDbVertex
100
AcDb2dVertex
 10
7.577411998
 20
6.7608655478
 30
0.0
  0
VERTEX
  5
413
330
25B
100
AcDbEntity
  8
0
  6
CONTINUOUS
 62
     7
100
AcDbVertex
100
AcDb2dVertex
 10
7.577411998
 20
6.7840746341
 30
0.0
  0
VERTEX
  5
414
330
25B
100
AcDbEntity
  8
0
  6
CONTINUOUS
 62
     7
100
AcDbVertex
100
AcDb2dVertex
 10
7.5785277513
 20
6.8078920404
 30
0.0
  0
VERTEX
  5
415
330
25B
100
AcDbEntity
  8
0
  6
CONTINUOUS
 62
     7
100
AcDbVertex
100
AcDb2dVertex
 10
7.5807558166
 20
6.8322443093
 30
0.0
  0
VERTEX
  5
416
330
25B
100
AcDbEntity
  8
0
  6
CONTINUOUS
 62
     7
100
AcDbVertex
100
AcDb2dVertex
 10
7.5840893222
 20
6.8570563339
 30
0.0
  0
VERTEX
  5
417
330
25B
100
AcDbEntity
  8
0
  6
CONTINUOUS
 62
     7
100
AcDbVertex
100
AcDb2dVertex
 10
7.588517987
 20
6.8822515892
 30
0.0
  0
VERTEX
  5
418
330
25B
100
AcDbEntity
  8
0
  6
CONTINUOUS
 62
     7
100
AcDbVertex
100
AcDb2dVertex
 10
7.594028152
 20
6.9077523682
 30
0.0
  0
VERTEX
  5
419
330
25B
100
AcDbEntity
  8
0
  6
CONTINUOUS
 62
     7
100
AcDbVertex
100
AcDb2dVertex
 10
7.6006028229
 20
6.9334800217
 30
0.0
  0
VERTEX
  5
41A
330
25B
100
AcDbEntity
  8
0
  6
CONTINUOUS
 62
     7
100
AcDbVertex
100
AcDb2dVertex
 10
7.6082217222
 20
6.9593552007
 30
0.0
  0
VERTEX
  5
41B
330
25B
100
AcDbEntity
  8
0
  6
CONTINUOUS
 62
     7
100
AcDbVertex
100
AcDb2dVertex
 10
7.6168613518
 20
6.9852981014
 30
0.0
  0
VERTEX
  5
41C
330
25B
100
AcDbEntity
  8
0
  6
CONTINUOUS
 62
     7
100
AcDbVertex
100
AcDb2dVertex
 10
7.6264950653
 20
7.0112287108
 30
0.0
  0
VERTEX
  5
41D
330
25B
100
AcDbEntity
  8
0
  6
CONTINUOUS
 62
     7
100
AcDbVertex
100
AcDb2dVertex
 10
7.6370931506
 20
7.0370670541
 30
0.0
  0
VERTEX
  5
41E
330
25B
100
AcDbEntity
  8
0
  6
CONTINUOUS
 62
     7
100
AcDbVertex
100
AcDb2dVertex
 10
7.6486229212
 20
7.0627334409
 30
0.0
  0
VERTEX
  5
41F
330
25B
100
AcDbEntity
  8
0
  6
CONTINUOUS
 62
     7
100
AcDbVertex
100
AcDb2dVertex
 10
7.6610488171
 20
7.0881487113
 30
0.0
  0
VERTEX
  5
420
330
25B
100
AcDbEntity
  8
0
  6
CONTINUOUS
 62
     7
100
AcDbVertex
100
AcDb2dVertex
 10
7.6743325145
 20
7.1132344796
 30
0.0
  0
VERTEX
  5
421
330
25B
100
AcDbEntity
  8
0
  6
CONTINUOUS
 62
     7
100
AcDbVertex
100
AcDb2dVertex
 10
7.6884330439
 20
7.1379133768
 30
0.0
  0
VERTEX
  5
422
330
25B
100
AcDbEntity
  8
0
  6
CONTINUOUS
 62
     7
100
AcDbVertex
100
AcDb2dVertex
 10
7.7033069166
 20
7.1621092884
 30
0.0
  0
VERTEX
  5
423
330
25B
100
AcDbEntity
  8
0
  6
CONTINUOUS
 62
     7
100
AcDbVertex
100
AcDb2dVertex
 10
7.7189082589
 20
7.1857475895
 30
0.0
  0
VERTEX
  5
424
330
25B
100
AcDbEntity
  8
0
  6
CONTINUOUS
 62
     7
100
AcDbVertex
100
AcDb2dVertex
 10
7.7351889532
 20
7.2087553753
 30
0.0
  0
VERTEX
  5
425
330
25B
100
AcDbEntity
  8
0
  6
CONTINUOUS
 62
     7
100
AcDbVertex
100
AcDb2dVertex
 10
7.7520987867
 20
7.2310616854
 30
0.0
  0
VERTEX
  5
426
330
25B
100
AcDbEntity
  8
0
  6
CONTINUOUS
 62
     7
100
AcDbVertex
100
AcDb2dVertex
 10
7.7695856064
 20
7.2525977228
 30
0.0
  0
VERTEX
  5
427
330
25B
100
AcDbEntity
  8
0
  6
CONTINUOUS
 62
     7
100
AcDbVertex
100
AcDb2dVertex
 10
7.7875954795
 20
7.2732970663
 30
0.0
  0
VERTEX
  5
428
330
25B
100
AcDbEntity
  8
0
  6
CONTINUOUS
 62
     7
100
AcDbVertex
100
AcDb2dVertex
 10
7.8060728603
 20
7.2930958754
 30
0.0
  0
VERTEX
  5
429
330
25B
100
AcDbEntity
  8
0
  6
CONTINUOUS
 62
     7
100
AcDbVertex
100
AcDb2dVertex
 10
7.824960761
 20
7.3119330866
 30
0.0
  0
VERTEX
  5
42A
330
25B
100
AcDbEntity
  8
0
  6
CONTINUOUS
 62
     7
100
AcDbVertex
100
AcDb2dVertex
 10
7.8442009276
 20
7.3297506025
 30
0.0
  0
VERTEX
  5
42B
330
25B
100
AcDbEntity
  8
0
  6
CONTINUOUS
 62
     7
100
AcDbVertex
100
AcDb2dVertex
 10
7.86373402
 20
7.3464934704
 30
0.0
  0
VERTEX
  5
42C
330
25B
100
AcDbEntity
  8
0
  6
CONTINUOUS
 62
     7
100
AcDbVertex
100
AcDb2dVertex
 10
7.8834997944
 20
7.3621100523
 30
0.0
  0
SEQEND
  5
42D
330
25B
100
AcDbEntity
  8
0
  6
CONTINUOUS
 62
     7
  0
LINE
  5
25C
330
1F
100
AcDbEntity
  8
0
  6
CONTINUOUS
 62
     7
100
AcDbLine
 10
7.8834997944
 20
7.3621100523
 30
0.0
 11
7.8320377921
 21
7.3918184339
 31
0.0
  0
ARC
  5
25D
330
1F
100
AcDbEntity
  8
0
  6
CONTINUOUS
 62
     7
100
AcDbCircle
 10
8.5549366941
 20
6.9668181341
 30
0.0
 40
0.2152561888344454
100
AcDbArc
 50
53.6063266304
 51
116.7610309036
  0
LINE
  5
25E
330
1F
100
AcDbEntity
  8
0
  6
CONTINUOUS
 62
     7
100
AcDbLine
 10
8.4580132137
 20
7.1590187215
 30
0.0
 11
8.509475216
 21
7.1293103399
 31
0.0
  0
ARC
  5
25F
330
1F
100
AcDbEntity
  8
0
  6
CONTINUOUS
 62
     7
100
AcDbCircle
 10
8.6077229621
 20
6.9251415449
 30
0.0
 40
0.2265778375474653
100
AcDbArc
 50
63.2565304616
 51
115.697252163
  0
ARC
  5
260
330
1F
100
AcDbEntity
  8
0
  6
CONTINUOUS
 62
     7
100
AcDbCircle
 10
8.2461646802
 20
7.1450684235
 30
0.0
 40
0.2152561888344499
100
AcDbArc
 50
53.6063266304
 51
116.7610309036
  0
LINE
  5
261
330
1F
100
AcDbEntity
  8
0
  6
CONTINUOUS
 62
     7
100
AcDbLine
 10
8.2007032022
 20
7.3075606293
 30
0.0
 11
8.1492411999
 21
7.3372690109
 31
0.0
  0
ARC
  5
262
330
1F
100
AcDbEntity
  8
0
  6
CONTINUOUS
 62
     7
100
AcDbCircle
 10
8.2989509482
 20
7.1033918343
 30
0.0
 40
0.2265778375474741
100
AcDbArc
 50
63.2565304616
 51
115.697252163
  0
POLYLINE
  5
263
330
1F
100
AcDbEntity
  8
0
  6
CONTINUOUS
 62
     7
100
AcDb2dPolyline
 66
     1
 10
0.0
 20
0.0
 30
0.0
  0
VERTEX
  5
42E
330
263
100
AcDbEntity
  8
0
  6
CONTINUOUS
 62
     7
100
AcDbVertex
100
AcDb2dVertex
 10
7.8353997301
 20
7.6321949503
 30
0.0
  0
VERTEX
  5
42F
330
263
100
AcDbEntity
  8
0
  6
CONTINUOUS
 62
     7
100
AcDbVertex
100
AcDb2dVertex
 10
7.8246266331
 20
7.6379112763
 30
0.0
  0
VERTEX
  5
430
330
263
100
AcDbEntity
  8
0
  6
CONTINUOUS
 62
     7
100
AcDbVertex
100
AcDb2dVertex
 10
7.8095866471
 20
7.6443543514
 30
0.0
  0
VERTEX
  5
431
330
263
100
AcDbEntity
  8
0
  6
CONTINUOUS
 62
     7
100
AcDbVertex
100
AcDb2dVertex
 10
7.7938479412
 20
7.6494143529
 30
0.0
  0
VERTEX
  5
432
330
263
100
AcDbEntity
  8
0
  6
CONTINUOUS
 62
     7
100
AcDbVertex
100
AcDb2dVertex
 10
7.7774583131
 20
7.6530759137
 30
0.0
  0
VERTEX
  5
433
330
263
100
AcDbEntity
  8
0
  6
CONTINUOUS
 62
     7
100
AcDbVertex
100
AcDb2dVertex
 10
7.7604675378
 20
7.6553279139
 30
0.0
  0
VERTEX
  5
434
330
263
100
AcDbEntity
  8
0
  6
CONTINUOUS
 62
     7
100
AcDbVertex
100
AcDb2dVertex
 10
7.7429272157
 20
7.6561635142
 30
0.0
  0
VERTEX
  5
435
330
263
100
AcDbEntity
  8
0
  6
CONTINUOUS
 62
     7
100
AcDbVertex
100
AcDb2dVertex
 10
7.724890616
 20
7.6555801768
 30
0.0
  0
VERTEX
  5
436
330
263
100
AcDbEntity
  8
0
  6
CONTINUOUS
 62
     7
100
AcDbVertex
100
AcDb2dVertex
 10
7.7064125155
 20
7.6535796735
 30
0.0
  0
VERTEX
  5
437
330
263
100
AcDbEntity
  8
0
  6
CONTINUOUS
 62
     7
100
AcDbVertex
100
AcDb2dVertex
 10
7.6875490314
 20
7.6501680795
 30
0.0
  0
VERTEX
  5
438
330
263
100
AcDbEntity
  8
0
  6
CONTINUOUS
 62
     7
100
AcDbVertex
100
AcDb2dVertex
 10
7.6683574515
 20
7.6453557559
 30
0.0
  0
VERTEX
  5
439
330
263
100
AcDbEntity
  8
0
  6
CONTINUOUS
 62
     7
100
AcDbVertex
100
AcDb2dVertex
 10
7.6488960601
 20
7.6391573175
 30
0.0
  0
VERTEX
  5
43A
330
263
100
AcDbEntity
  8
0
  6
CONTINUOUS
 62
     7
100
AcDbVertex
100
AcDb2dVertex
 10
7.6292239607
 20
7.6315915887
 30
0.0
  0
VERTEX
  5
43B
330
263
100
AcDbEntity
  8
0
  6
CONTINUOUS
 62
     7
100
AcDbVertex
100
AcDb2dVertex
 10
7.6094008969
 20
7.6226815465
 30
0.0
  0
VERTEX
  5
43C
330
263
100
AcDbEntity
  8
0
  6
CONTINUOUS
 62
     7
100
AcDbVertex
100
AcDb2dVertex
 10
7.5894870706
 20
7.6124542502
 30
0.0
  0
VERTEX
  5
43D
330
263
100
AcDbEntity
  8
0
  6
CONTINUOUS
 62
     7
100
AcDbVertex
100
AcDb2dVertex
 10
7.5695429596
 20
7.60094076
 30
0.0
  0
VERTEX
  5
43E
330
263
100
AcDbEntity
  8
0
  6
CONTINUOUS
 62
     7
100
AcDbVertex
100
AcDb2dVertex
 10
7.5496291333
 20
7.5881760418
 30
0.0
  0
VERTEX
  5
43F
330
263
100
AcDbEntity
  8
0
  6
CONTINUOUS
 62
     7
100
AcDbVertex
100
AcDb2dVertex
 10
7.5298060695
 20
7.5741988618
 30
0.0
  0
VERTEX
  5
440
330
263
100
AcDbEntity
  8
0
  6
CONTINUOUS
 62
     7
100
AcDbVertex
100
AcDb2dVertex
 10
7.5101339701
 20
7.5590516681
 30
0.0
  0
VERTEX
  5
441
330
263
100
AcDbEntity
  8
0
  6
CONTINUOUS
 62
     7
100
AcDbVertex
100
AcDb2dVertex
 10
7.4906725787
 20
7.5427804622
 30
0.0
  0
VERTEX
  5
442
330
263
100
AcDbEntity
  8
0
  6
CONTINUOUS
 62
     7
100
AcDbVertex
100
AcDb2dVertex
 10
7.4714809988
 20
7.5254346594
 30
0.0
  0
VERTEX
  5
443
330
263
100
AcDbEntity
  8
0
  6
CONTINUOUS
 62
     7
100
AcDbVertex
100
AcDb2dVertex
 10
7.4526175147
 20
7.5070669382
 30
0.0
  0
VERTEX
  5
444
330
263
100
AcDbEntity
  8
0
  6
CONTINUOUS
 62
     7
100
AcDbVertex
100
AcDb2dVertex
 10
7.4341394142
 20
7.4877330807
 30
0.0
  0
VERTEX
  5
445
330
263
100
AcDbEntity
  8
0
  6
CONTINUOUS
 62
     7
100
AcDbVertex
100
AcDb2dVertex
 10
7.4161028145
 20
7.4674918034
 30
0.0
  0
VERTEX
  5
446
330
263
100
AcDbEntity
  8
0
  6
CONTINUOUS
 62
     7
100
AcDbVertex
100
AcDb2dVertex
 10
7.3985624924
 20
7.4464045782
 30
0.0
  0
VERTEX
  5
447
330
263
100
AcDbEntity
  8
0
  6
CONTINUOUS
 62
     7
100
AcDbVertex
100
AcDb2dVertex
 10
7.3815717171
 20
7.4245354464
 30
0.0
  0
VERTEX
  5
448
330
263
100
AcDbEntity
  8
0
  6
CONTINUOUS
 62
     7
100
AcDbVertex
100
AcDb2dVertex
 10
7.365182089
 20
7.4019508238
 30
0.0
  0
VERTEX
  5
449
330
263
100
AcDbEntity
  8
0
  6
CONTINUOUS
 62
     7
100
AcDbVertex
100
AcDb2dVertex
 10
7.3494433831
 20
7.3787192992
 30
0.0
  0
VERTEX
  5
44A
330
263
100
AcDbEntity
  8
0
  6
CONTINUOUS
 62
     7
100
AcDbVertex
100
AcDb2dVertex
 10
7.3344033971
 20
7.354911426
 30
0.0
  0
VERTEX
  5
44B
330
263
100
AcDbEntity
  8
0
  6
CONTINUOUS
 62
     7
100
AcDbVertex
100
AcDb2dVertex
 10
7.3201078071
 20
7.3305995078
 30
0.0
  0
VERTEX
  5
44C
330
263
100
AcDbEntity
  8
0
  6
CONTINUOUS
 62
     7
100
AcDbVertex
100
AcDb2dVertex
 10
7.3066000282
 20
7.3058573792
 30
0.0
  0
VERTEX
  5
44D
330
263
100
AcDbEntity
  8
0
  6
CONTINUOUS
 62
     7
100
AcDbVertex
100
AcDb2dVertex
 10
7.2939210832
 20
7.2807601813
 30
0.0
  0
VERTEX
  5
44E
330
263
100
AcDbEntity
  8
0
  6
CONTINUOUS
 62
     7
100
AcDbVertex
100
AcDb2dVertex
 10
7.2821094775
 20
7.2553841332
 30
0.0
  0
VERTEX
  5
44F
330
263
100
AcDbEntity
  8
0
  6
CONTINUOUS
 62
     7
100
AcDbVertex
100
AcDb2dVertex
 10
7.2712010827
 20
7.2298063014
 30
0.0
  0
VERTEX
  5
450
330
263
100
AcDbEntity
  8
0
  6
CONTINUOUS
 62
     7
100
AcDbVertex
100
AcDb2dVertex
 10
7.2612290272
 20
7.2041043649
 30
0.0
  0
VERTEX
  5
451
330
263
100
AcDbEntity
  8
0
  6
CONTINUOUS
 62
     7
100
AcDbVertex
100
AcDb2dVertex
 10
7.2522235957
 20
7.1783563794
 30
0.0
  0
VERTEX
  5
452
330
263
100
AcDbEntity
  8
0
  6
CONTINUOUS
 62
     7
100
AcDbVertex
100
AcDb2dVertex
 10
7.2442121376
 20
7.152640541
 30
0.0
  0
VERTEX
  5
453
330
263
100
AcDbEntity
  8
0
  6
CONTINUOUS
 62
     7
100
AcDbVertex
100
AcDb2dVertex
 10
7.2372189832
 20
7.1270349476
 30
0.0
  0
VERTEX
  5
454
330
263
100
AcDbEntity
  8
0
  6
CONTINUOUS
 62
     7
100
AcDbVertex
100
AcDb2dVertex
 10
7.2312653707
 20
7.1016173627
 30
0.0
  0
VERTEX
  5
455
330
263
100
AcDbEntity
  8
0
  6
CONTINUOUS
 62
     7
100
AcDbVertex
100
AcDb2dVertex
 10
7.2263693809
 20
7.0764649787
 30
0.0
  0
VERTEX
  5
456
330
263
100
AcDbEntity
  8
0
  6
CONTINUOUS
 62
     7
100
AcDbVertex
100
AcDb2dVertex
 10
7.2225458827
 20
7.0516541824
 30
0.0
  0
VERTEX
  5
457
330
263
100
AcDbEntity
  8
0
  6
CONTINUOUS
 62
     7
100
AcDbVertex
100
AcDb2dVertex
 10
7.2198064881
 20
7.0272603235
 30
0.0
  0
VERTEX
  5
458
330
263
100
AcDbEntity
  8
0
  6
CONTINUOUS
 62
     7
100
AcDbVertex
100
AcDb2dVertex
 10
7.2181595165
 20
7.0033574852
 30
0.0
  0
VERTEX
  5
459
330
263
100
AcDbEntity
  8
0
  6
CONTINUOUS
 62
     7
100
AcDbVertex
100
AcDb2dVertex
 10
7.2176099696
 20
6.9800182599
 30
0.0
  0
VERTEX
  5
45A
330
263
100
AcDbEntity
  8
0
  6
CONTINUOUS
 62
     7
100
AcDbVertex
100
AcDb2dVertex
 10
7.2181595165
 20
6.9573135278
 30
0.0
  0
VERTEX
  5
45B
330
263
100
AcDbEntity
  8
0
  6
CONTINUOUS
 62
     7
100
AcDbVertex
100
AcDb2dVertex
 10
7.2198064881
 20
6.9353122426
 30
0.0
  0
VERTEX
  5
45C
330
263
100
AcDbEntity
  8
0
  6
CONTINUOUS
 62
     7
100
AcDbVertex
100
AcDb2dVertex
 10
7.2225458827
 20
6.9140812214
 30
0.0
  0
VERTEX
  5
45D
330
263
100
AcDbEntity
  8
0
  6
CONTINUOUS
 62
     7
100
AcDbVertex
100
AcDb2dVertex
 10
7.2263693809
 20
6.8936849421
 30
0.0
  0
VERTEX
  5
45E
330
263
100
AcDbEntity
  8
0
  6
CONTINUOUS
 62
     7
100
AcDbVertex
100
AcDb2dVertex
 10
7.2312653707
 20
6.8741853475
 30
0.0
  0
VERTEX
  5
45F
330
263
100
AcDbEntity
  8
0
  6
CONTINUOUS
 62
     7
100
AcDbVertex
100
AcDb2dVertex
 10
7.2372189832
 20
6.8556416573
 30
0.0
  0
VERTEX
  5
460
330
263
100
AcDbEntity
  8
0
  6
CONTINUOUS
 62
     7
100
AcDbVertex
100
AcDb2dVertex
 10
7.2442121376
 20
6.8381101881
 30
0.0
  0
VERTEX
  5
461
330
263
100
AcDbEntity
  8
0
  6
CONTINUOUS
 62
     7
100
AcDbVertex
100
AcDb2dVertex
 10
7.2522235957
 20
6.8216441824
 30
0.0
  0
VERTEX
  5
462
330
263
100
AcDbEntity
  8
0
  6
CONTINUOUS
 62
     7
100
AcDbVertex
100
AcDb2dVertex
 10
7.2612290272
 20
6.8062936468
 30
0.0
  0
VERTEX
  5
463
330
263
100
AcDbEntity
  8
0
  6
CONTINUOUS
 62
     7
100
AcDbVertex
100
AcDb2dVertex
 10
7.2712010827
 20
6.7921052004
 30
0.0
  0
VERTEX
  5
464
330
263
100
AcDbEntity
  8
0
  6
CONTINUOUS
 62
     7
100
AcDbVertex
100
AcDb2dVertex
 10
7.2821094775
 20
6.7791219332
 30
0.0
  0
VERTEX
  5
465
330
263
100
AcDbEntity
  8
0
  6
CONTINUOUS
 62
     7
100
AcDbVertex
100
AcDb2dVertex
 10
7.2939210832
 20
6.7673832748
 30
0.0
  0
VERTEX
  5
466
330
263
100
AcDbEntity
  8
0
  6
CONTINUOUS
 62
     7
100
AcDbVertex
100
AcDb2dVertex
 10
7.3066000282
 20
6.7569248751
 30
0.0
  0
VERTEX
  5
467
330
263
100
AcDbEntity
  8
0
  6
CONTINUOUS
 62
     7
100
AcDbVertex
100
AcDb2dVertex
 10
7.3201078071
 20
6.7477784961
 30
0.0
  0
VERTEX
  5
468
330
263
100
AcDbEntity
  8
0
  6
CONTINUOUS
 62
     7
100
AcDbVertex
100
AcDb2dVertex
 10
7.3236303001
 20
6.7456882408
 30
0.0
  0
SEQEND
  5
469
330
263
100
AcDbEntity
  8
0
  6
CONTINUOUS
 62
     7
  0
SPLINE
  5
264
330
1F
100
AcDbEntity
  8
0
  6
CONTINUOUS
 62
     7
100
AcDbSpline
210
0.0
220
0.0
230
1.0
 70
     8
 71
     3
 72
    30
 73
    26
 74
     0
 42
0.00000001
 43
0.00000001
 40
-0.1264836848391853
 40
-0.0838633196148552
 40
-0.0426489210763347
 40
0.0
 40
0.042659631005068
 40
0.0838784842448054
 40
0.1264978582745276
 40
0.1887994881986061
 40
0.2495387339239497
 40
0.2906185775197666
 40
0.3307891411917724
 40
0.3732993863249925
 40
0.4158561970234426
 40
0.4570545054154783
 40
0.4997408974066994
 40
0.5424290890267957
 40
0.5836564515965186
 40
0.6262706366835172
 40
0.6686629149833778
 40
0.7087946518834711
 40
0.7498998876539179
 40
0.7909220832489224
 40
0.8310407576885981
 40
0.8735163151608147
 40
0.9161366803851448
 40
0.9573510789236653
 40
1.0
 40
1.042659631005068
 40
1.083878484244805
 40
1.126497858274528
 10
8.48013210320126
 20
7.054819095276541
 30
0.0
 10
8.504245834653764
 20
7.07343143484602
 30
0.0
 10
8.534387919244718
 20
7.086142279147679
 30
0.0
 10
8.569805263135045
 20
7.091602208999833
 30
0.0
 10
8.613454433421776
 20
7.089849303684542
 30
0.0
 10
8.663810686887587
 20
7.079031841140115
 30
0.0
 10
8.705849471123992
 20
7.05990637963122
 30
0.0
 10
8.732591554448916
 20
7.041539980216393
 30
0.0
 10
8.746604277048467
 20
7.024743711273381
 30
0.0
 10
8.750206823126149
 20
7.007723484272204
 30
0.0
 10
8.745182992254785
 20
6.990365946890184
 30
0.0
 10
8.72997624097884
 20
6.973250156915181
 30
0.0
 10
8.705851623248627
 20
6.957056027114691
 30
0.0
 10
8.675692660032434
 20
6.941912515912752
 30
0.0
 10
8.64028862274517
 20
6.929826830634754
 30
0.0
 10
8.602496329693217
 20
6.92245129899769
 30
0.0
 10
8.564898846876263
 20
6.91983643347437
 30
0.0
 10
8.529911320262965
 20
6.924483126054905
 30
0.0
 10
8.500543469167436
 20
6.936702806989725
 30
0.0
 10
8.47740411426165
 20
6.954722249510713
 30
0.0
 10
8.463445148951548
 20
6.978363133876975
 30
0.0
 10
8.459879286400026
 20
7.004786147142384
 30
0.0
 10
8.464932338648065
 20
7.031084173681716
 30
0.0
 10
8.48013210320126
 20
7.054819095276541
 30
0.0
 10
8.504245834653764
 20
7.07343143484602
 30
0.0
 10
8.534387919244718
 20
7.086142279147679
 30
0.0
  0
SPLINE
  5
265
330
1F
100
AcDbEntity
  8
0
  6
CONTINUOUS
 62
     7
100
AcDbSpline
210
0.0
220
0.0
230
1.0
 70
     8
 71
     3
 72
    30
 73
    26
 74
     0
 42
0.00000001
 43
0.00000001
 40
-0.1264836848391795
 40
-0.083863319614826
 40
-0.0426489210763054
 40
0.0
 40
0.0426596310050679
 40
0.0838784842448053
 40
0.1264978582745278
 40
0.1887994881986062
 40
0.2495387339239504
 40
0.2906185775197668
 40
0.3307891411917727
 40
0.3732993863249932
 40
0.4158561970234434
 40
0.4570545054154789
 40
0.4997408974067005
 40
0.5424290890268548
 40
0.5836564515965779
 40
0.6262706366835294
 40
0.6686629149834331
 40
0.7087946518835265
 40
0.7498998876539176
 40
0.7909220832489499
 40
0.8310407576886255
 40
0.8735163151608205
 40
0.916136680385174
 40
0.9573510789236946
 40
1.0
 40
1.042659631005068
 40
1.083878484244805
 40
1.126497858274528
 10
7.611559994027249
 20
7.556235100962937
 30
0.0
 10
7.635673725479744
 20
7.574847440532412
 30
0.0
 10
7.665815810070693
 20
7.587558284834069
 30
0.0
 10
7.70123315396102
 20
7.593018214686222
 30
0.0
 10
7.74488232424775
 20
7.591265309370931
 30
0.0
 10
7.795238577713562
 20
7.580447846826504
 30
0.0
 10
7.837277361949966
 20
7.561322385317609
 30
0.0
 10
7.864019445274891
 20
7.542955985902781
 30
0.0
 10
7.878032167874442
 20
7.526159716959771
 30
0.0
 10
7.881634713952123
 20
7.509139489958593
 30
0.0
 10
7.876610883080757
 20
7.491781952576574
 30
0.0
 10
7.861404131804814
 20
7.47466616260157
 30
0.0
 10
7.837279514074588
 20
7.458472032801074
 30
0.0
 10
7.807120550858386
 20
7.443328521599123
 30
0.0
 10
7.771716513571121
 20
7.431242836321114
 30
0.0
 10
7.733924220519161
 20
7.423867304684075
 30
0.0
 10
7.696326737702215
 20
7.421252439160786
 30
0.0
 10
7.661339211088918
 20
7.425899131741311
 30
0.0
 10
7.631971359993392
 20
7.438118812676125
 30
0.0
 10
7.608832005087611
 20
7.456138255197107
 30
0.0
 10
7.594873039777502
 20
7.479779139563369
 30
0.0
 10
7.591307177226001
 20
7.506202152828784
 30
0.0
 10
7.596360229474059
 20
7.532500179368115
 30
0.0
 10
7.611559994027249
 20
7.556235100962937
 30
0.0
 10
7.635673725479744
 20
7.574847440532412
 30
0.0
 10
7.665815810070693
 20
7.587558284834069
 30
0.0
  0
ARC
  5
266
330
1F
100
AcDbEntity
  8
0
  6
CONTINUOUS
 62
     7
100
AcDbCircle
 10
8.040316671
 20
7.2639019498
 30
0.0
 40
0.2152561888344412
100
AcDbArc
 50
53.6063266304
 51
116.7610309036
  0
LINE
  5
267
330
1F
100
AcDbEntity
  8
0
  6
CONTINUOUS
 62
     7
100
AcDbLine
 10
7.9433931907
 20
7.4561025372
 30
0.0
 11
7.994855193
 21
7.4263941556
 31
0.0
  0
ARC
  5
268
330
1F
100
AcDbEntity
  8
0
  6
CONTINUOUS
 62
     7
100
AcDbCircle
 10
8.093102939
 20
7.2222253606
 30
0.0
 40
0.2265778375474749
100
AcDbArc
 50
63.2565304616
 51
115.697252163
  0
ARC
  5
269
330
1F
100
AcDbEntity
  8
0
  6
CONTINUOUS
 62
     7
100
AcDbCircle
 10
8.3490886848
 20
7.0856516604
 30
0.0
 40
0.2152561888344494
100
AcDbArc
 50
53.6063266304
 51
116.7610309036
  0
LINE
  5
26A
330
1F
100
AcDbEntity
  8
0
  6
CONTINUOUS
 62
     7
100
AcDbLine
 10
8.3036272068
 20
7.2481438662
 30
0.0
 11
8.2521652045
 21
7.2778522478
 31
0.0
  0
ARC
  5
26B
330
1F
100
AcDbEntity
  8
0
  6
CONTINUOUS
 62
     7
100
AcDbCircle
 10
8.4018749528
 20
7.0439750712
 30
0.0
 40
0.2265778375474621
100
AcDbArc
 50
63.2565304616
 51
115.697252163
  0
POLYLINE
  5
26C
330
1F
100
AcDbEntity
  8
0
  6
CONTINUOUS
 62
     7
100
AcDb2dPolyline
 66
     1
 10
0.0
 20
0.0
 30
0.0
  0
VERTEX
  5
46A
330
26C
100
AcDbEntity
  8
0
  6
CONTINUOUS
 62
     7
100
AcDbVertex
100
AcDb2dVertex
 10
7.8891407878
 20
6.4192259852
 30
0.0
  0
VERTEX
  5
46B
330
26C
100
AcDbEntity
  8
0
  6
CONTINUOUS
 62
     7
100
AcDbVertex
100
AcDb2dVertex
 10
7.8801805237
 20
6.4247742223
 30
0.0
  0
VERTEX
  5
46C
330
26C
100
AcDbEntity
  8
0
  6
CONTINUOUS
 62
     7
100
AcDbVertex
100
AcDb2dVertex
 10
7.8668968263
 20
6.4345229601
 30
0.0
  0
VERTEX
  5
46D
330
26C
100
AcDbEntity
  8
0
  6
CONTINUOUS
 62
     7
100
AcDbVertex
100
AcDb2dVertex
 10
7.8544709304
 20
6.4455915965
 30
0.0
  0
VERTEX
  5
46E
330
26C
100
AcDbEntity
  8
0
  6
CONTINUOUS
 62
     7
100
AcDbVertex
100
AcDb2dVertex
 10
7.8429411598
 20
6.4579459935
 30
0.0
  0
VERTEX
  5
46F
330
26C
100
AcDbEntity
  8
0
  6
CONTINUOUS
 62
     7
100
AcDbVertex
100
AcDb2dVertex
 10
7.8323430745
 20
6.471548048
 30
0.0
  0
VERTEX
  5
470
330
26C
100
AcDbEntity
  8
0
  6
CONTINUOUS
 62
     7
100
AcDbVertex
100
AcDb2dVertex
 10
7.822709361
 20
6.4863558085
 30
0.0
  0
VERTEX
  5
471
330
26C
100
AcDbEntity
  8
0
  6
CONTINUOUS
 62
     7
100
AcDbVertex
100
AcDb2dVertex
 10
7.8140697314
 20
6.5023236052
 30
0.0
  0
VERTEX
  5
472
330
26C
100
AcDbEntity
  8
0
  6
CONTINUOUS
 62
     7
100
AcDbVertex
100
AcDb2dVertex
 10
7.8064508322
 20
6.5194021904
 30
0.0
  0
VERTEX
  5
473
330
26C
100
AcDbEntity
  8
0
  6
CONTINUOUS
 62
     7
100
AcDbVertex
100
AcDb2dVertex
 10
7.7998761612
 20
6.5375388904
 30
0.0
  0
VERTEX
  5
474
330
26C
100
AcDbEntity
  8
0
  6
CONTINUOUS
 62
     7
100
AcDbVertex
100
AcDb2dVertex
 10
7.7943659962
 20
6.5566777683
 30
0.0
  0
VERTEX
  5
475
330
26C
100
AcDbEntity
  8
0
  6
CONTINUOUS
 62
     7
100
AcDbVertex
100
AcDb2dVertex
 10
7.7899373315
 20
6.5767597961
 30
0.0
  0
VERTEX
  5
476
330
26C
100
AcDbEntity
  8
0
  6
CONTINUOUS
 62
     7
100
AcDbVertex
100
AcDb2dVertex
 10
7.7866038258
 20
6.597723037
 30
0.0
  0
VERTEX
  5
477
330
26C
100
AcDbEntity
  8
0
  6
CONTINUOUS
 62
     7
100
AcDbVertex
100
AcDb2dVertex
 10
7.7843757605
 20
6.6195028365
 30
0.0
  0
VERTEX
  5
478
330
26C
100
AcDbEntity
  8
0
  6
CONTINUOUS
 62
     7
100
AcDbVertex
100
AcDb2dVertex
 10
7.7832600073
 20
6.6420320215
 30
0.0
  0
VERTEX
  5
479
330
26C
100
AcDbEntity
  8
0
  6
CONTINUOUS
 62
     7
100
AcDbVertex
100
AcDb2dVertex
 10
7.7832600073
 20
6.6652411078
 30
0.0
  0
VERTEX
  5
47A
330
26C
100
AcDbEntity
  8
0
  6
CONTINUOUS
 62
     7
100
AcDbVertex
100
AcDb2dVertex
 10
7.7843757605
 20
6.6890585141
 30
0.0
  0
VERTEX
  5
47B
330
26C
100
AcDbEntity
  8
0
  6
CONTINUOUS
 62
     7
100
AcDbVertex
100
AcDb2dVertex
 10
7.7866038258
 20
6.7134107831
 30
0.0
  0
VERTEX
  5
47C
330
26C
100
AcDbEntity
  8
0
  6
CONTINUOUS
 62
     7
100
AcDbVertex
100
AcDb2dVertex
 10
7.7899373315
 20
6.7382228077
 30
0.0
  0
VERTEX
  5
47D
330
26C
100
AcDbEntity
  8
0
  6
CONTINUOUS
 62
     7
100
AcDbVertex
100
AcDb2dVertex
 10
7.7943659962
 20
6.7634180629
 30
0.0
  0
VERTEX
  5
47E
330
26C
100
AcDbEntity
  8
0
  6
CONTINUOUS
 62
     7
100
AcDbVertex
100
AcDb2dVertex
 10
7.7998761612
 20
6.7889188419
 30
0.0
  0
VERTEX
  5
47F
330
26C
100
AcDbEntity
  8
0
  6
CONTINUOUS
 62
     7
100
AcDbVertex
100
AcDb2dVertex
 10
7.8064508322
 20
6.8146464954
 30
0.0
  0
VERTEX
  5
480
330
26C
100
AcDbEntity
  8
0
  6
CONTINUOUS
 62
     7
100
AcDbVertex
100
AcDb2dVertex
 10
7.8140697314
 20
6.8405216745
 30
0.0
  0
VERTEX
  5
481
330
26C
100
AcDbEntity
  8
0
  6
CONTINUOUS
 62
     7
100
AcDbVertex
100
AcDb2dVertex
 10
7.822709361
 20
6.8664645751
 30
0.0
  0
VERTEX
  5
482
330
26C
100
AcDbEntity
  8
0
  6
CONTINUOUS
 62
     7
100
AcDbVertex
100
AcDb2dVertex
 10
7.8323430745
 20
6.8923951845
 30
0.0
  0
VERTEX
  5
483
330
26C
100
AcDbEntity
  8
0
  6
CONTINUOUS
 62
     7
100
AcDbVertex
100
AcDb2dVertex
 10
7.8429411598
 20
6.9182335278
 30
0.0
  0
VERTEX
  5
484
330
26C
100
AcDbEntity
  8
0
  6
CONTINUOUS
 62
     7
100
AcDbVertex
100
AcDb2dVertex
 10
7.8544709304
 20
6.9438999146
 30
0.0
  0
VERTEX
  5
485
330
26C
100
AcDbEntity
  8
0
  6
CONTINUOUS
 62
     7
100
AcDbVertex
100
AcDb2dVertex
 10
7.8668968263
 20
6.969315185
 30
0.0
  0
VERTEX
  5
486
330
26C
100
AcDbEntity
  8
0
  6
CONTINUOUS
 62
     7
100
AcDbVertex
100
AcDb2dVertex
 10
7.8801805237
 20
6.9944009534
 30
0.0
  0
VERTEX
  5
487
330
26C
100
AcDbEntity
  8
0
  6
CONTINUOUS
 62
     7
100
AcDbVertex
100
AcDb2dVertex
 10
7.8942810531
 20
7.0190798505
 30
0.0
  0
VERTEX
  5
488
330
26C
100
AcDbEntity
  8
0
  6
CONTINUOUS
 62
     7
100
AcDbVertex
100
AcDb2dVertex
 10
7.9091549258
 20
7.0432757621
 30
0.0
  0
VERTEX
  5
489
330
26C
100
AcDbEntity
  8
0
  6
CONTINUOUS
 62
     7
100
AcDbVertex
100
AcDb2dVertex
 10
7.9247562681
 20
7.0669140633
 30
0.0
  0
VERTEX
  5
48A
330
26C
100
AcDbEntity
  8
0
  6
CONTINUOUS
 62
     7
100
AcDbVertex
100
AcDb2dVertex
 10
7.9410369624
 20
7.089921849
 30
0.0
  0
VERTEX
  5
48B
330
26C
100
AcDbEntity
  8
0
  6
CONTINUOUS
 62
     7
100
AcDbVertex
100
AcDb2dVertex
 10
7.9579467959
 20
7.1122281591
 30
0.0
  0
VERTEX
  5
48C
330
26C
100
AcDbEntity
  8
0
  6
CONTINUOUS
 62
     7
100
AcDbVertex
100
AcDb2dVertex
 10
7.9754336156
 20
7.1337641965
 30
0.0
  0
VERTEX
  5
48D
330
26C
100
AcDbEntity
  8
0
  6
CONTINUOUS
 62
     7
100
AcDbVertex
100
AcDb2dVertex
 10
7.9934434887
 20
7.1544635401
 30
0.0
  0
VERTEX
  5
48E
330
26C
100
AcDbEntity
  8
0
  6
CONTINUOUS
 62
     7
100
AcDbVertex
100
AcDb2dVertex
 10
8.0119208695
 20
7.1742623491
 30
0.0
  0
VERTEX
  5
48F
330
26C
100
AcDbEntity
  8
0
  6
CONTINUOUS
 62
     7
100
AcDbVertex
100
AcDb2dVertex
 10
8.0308087702
 20
7.1930995603
 30
0.0
  0
VERTEX
  5
490
330
26C
100
AcDbEntity
  8
0
  6
CONTINUOUS
 62
     7
100
AcDbVertex
100
AcDb2dVertex
 10
8.0500489369
 20
7.2109170762
 30
0.0
  0
VERTEX
  5
491
330
26C
100
AcDbEntity
  8
0
  6
CONTINUOUS
 62
     7
100
AcDbVertex
100
AcDb2dVertex
 10
8.0695820292
 20
7.2276599442
 30
0.0
  0
VERTEX
  5
492
330
26C
100
AcDbEntity
  8
0
  6
CONTINUOUS
 62
     7
100
AcDbVertex
100
AcDb2dVertex
 10
8.0893478036
 20
7.243276526
 30
0.0
  0
SEQEND
  5
493
330
26C
100
AcDbEntity
  8
0
  6
CONTINUOUS
 62
     7
  0
LINE
  5
26D
330
1F
100
AcDbEntity
  8
0
  6
CONTINUOUS
 62
     7
100
AcDbLine
 10
8.0378858013
 20
7.2729849076
 30
0.0
 11
8.0893478036
 21
7.243276526
 31
0.0
  0
POLYLINE
  5
26E
330
1F
100
AcDbEntity
  8
0
  6
CONTINUOUS
 62
     7
100
AcDb2dPolyline
 66
     1
 10
0.0
 20
0.0
 30
0.0
  0
VERTEX
  5
494
330
26E
100
AcDbEntity
  8
0
  6
CONTINUOUS
 62
     7
100
AcDbVertex
100
AcDb2dVertex
 10
8.0378858013
 20
7.2729849076
 30
0.0
  0
VERTEX
  5
495
330
26E
100
AcDbEntity
  8
0
  6
CONTINUOUS
 62
     7
100
AcDbVertex
100
AcDb2dVertex
 10
8.0181200269
 20
7.2573683257
 30
0.0
  0
VERTEX
  5
496
330
26E
100
AcDbEntity
  8
0
  6
CONTINUOUS
 62
     7
100
AcDbVertex
100
AcDb2dVertex
 10
7.9985869345
 20
7.2406254578
 30
0.0
  0
VERTEX
  5
497
330
26E
100
AcDbEntity
  8
0
  6
CONTINUOUS
 62
     7
100
AcDbVertex
100
AcDb2dVertex
 10
7.9793467679
 20
7.2228079419
 30
0.0
  0
VERTEX
  5
498
330
26E
100
AcDbEntity
  8
0
  6
CONTINUOUS
 62
     7
100
AcDbVertex
100
AcDb2dVertex
 10
7.9604588672
 20
7.2039707307
 30
0.0
  0
VERTEX
  5
499
330
26E
100
AcDbEntity
  8
0
  6
CONTINUOUS
 62
     7
100
AcDbVertex
100
AcDb2dVertex
 10
7.9419814864
 20
7.1841719216
 30
0.0
  0
VERTEX
  5
49A
330
26E
100
AcDbEntity
  8
0
  6
CONTINUOUS
 62
     7
100
AcDbVertex
100
AcDb2dVertex
 10
7.9239716133
 20
7.1634725781
 30
0.0
  0
VERTEX
  5
49B
330
26E
100
AcDbEntity
  8
0
  6
CONTINUOUS
 62
     7
100
AcDbVertex
100
AcDb2dVertex
 10
7.9064847936
 20
7.1419365407
 30
0.0
  0
VERTEX
  5
49C
330
26E
100
AcDbEntity
  8
0
  6
CONTINUOUS
 62
     7
100
AcDbVertex
100
AcDb2dVertex
 10
7.8895749601
 20
7.1196302306
 30
0.0
  0
VERTEX
  5
49D
330
26E
100
AcDbEntity
  8
0
  6
CONTINUOUS
 62
     7
100
AcDbVertex
100
AcDb2dVertex
 10
7.8732942658
 20
7.0966224448
 30
0.0
  0
VERTEX
  5
49E
330
26E
100
AcDbEntity
  8
0
  6
CONTINUOUS
 62
     7
100
AcDbVertex
100
AcDb2dVertex
 10
7.8576929235
 20
7.0729841437
 30
0.0
  0
VERTEX
  5
49F
330
26E
100
AcDbEntity
  8
0
  6
CONTINUOUS
 62
     7
100
AcDbVertex
100
AcDb2dVertex
 10
7.8428190508
 20
7.0487882321
 30
0.0
  0
VERTEX
  5
4A0
330
26E
100
AcDbEntity
  8
0
  6
CONTINUOUS
 62
     7
100
AcDbVertex
100
AcDb2dVertex
 10
7.8287185214
 20
7.0241093349
 30
0.0
  0
VERTEX
  5
4A1
330
26E
100
AcDbEntity
  8
0
  6
CONTINUOUS
 62
     7
100
AcDbVertex
100
AcDb2dVertex
 10
7.815434824
 20
6.9990235665
 30
0.0
  0
VERTEX
  5
4A2
330
26E
100
AcDbEntity
  8
0
  6
CONTINUOUS
 62
     7
100
AcDbVertex
100
AcDb2dVertex
 10
7.8030089281
 20
6.9736082962
 30
0.0
  0
VERTEX
  5
4A3
330
26E
100
AcDbEntity
  8
0
  6
CONTINUOUS
 62
     7
100
AcDbVertex
100
AcDb2dVertex
 10
7.7914791575
 20
6.9479419094
 30
0.0
  0
VERTEX
  5
4A4
330
26E
100
AcDbEntity
  8
0
  6
CONTINUOUS
 62
     7
100
AcDbVertex
100
AcDb2dVertex
 10
7.7808810722
 20
6.9221035661
 30
0.0
  0
VERTEX
  5
4A5
330
26E
100
AcDbEntity
  8
0
  6
CONTINUOUS
 62
     7
100
AcDbVertex
100
AcDb2dVertex
 10
7.7712473587
 20
6.8961729567
 30
0.0
  0
VERTEX
  5
4A6
330
26E
100
AcDbEntity
  8
0
  6
CONTINUOUS
 62
     7
100
AcDbVertex
100
AcDb2dVertex
 10
7.7626077291
 20
6.870230056
 30
0.0
  0
VERTEX
  5
4A7
330
26E
100
AcDbEntity
  8
0
  6
CONTINUOUS
 62
     7
100
AcDbVertex
100
AcDb2dVertex
 10
7.7549888299
 20
6.844354877
 30
0.0
  0
VERTEX
  5
4A8
330
26E
100
AcDbEntity
  8
0
  6
CONTINUOUS
 62
     7
100
AcDbVertex
100
AcDb2dVertex
 10
7.7484141589
 20
6.8186272235
 30
0.0
  0
VERTEX
  5
4A9
330
26E
100
AcDbEntity
  8
0
  6
CONTINUOUS
 62
     7
100
AcDbVertex
100
AcDb2dVertex
 10
7.7429039939
 20
6.7931264445
 30
0.0
  0
VERTEX
  5
4AA
330
26E
100
AcDbEntity
  8
0
  6
CONTINUOUS
 62
     7
100
AcDbVertex
100
AcDb2dVertex
 10
7.7384753292
 20
6.7679311892
 30
0.0
  0
VERTEX
  5
4AB
330
26E
100
AcDbEntity
  8
0
  6
CONTINUOUS
 62
     7
100
AcDbVertex
100
AcDb2dVertex
 10
7.7351418235
 20
6.7431191646
 30
0.0
  0
VERTEX
  5
4AC
330
26E
100
AcDbEntity
  8
0
  6
CONTINUOUS
 62
     7
100
AcDbVertex
100
AcDb2dVertex
 10
7.7329137582
 20
6.7187668957
 30
0.0
  0
VERTEX
  5
4AD
330
26E
100
AcDbEntity
  8
0
  6
CONTINUOUS
 62
     7
100
AcDbVertex
100
AcDb2dVertex
 10
7.731798005
 20
6.6949494894
 30
0.0
  0
VERTEX
  5
4AE
330
26E
100
AcDbEntity
  8
0
  6
CONTINUOUS
 62
     7
100
AcDbVertex
100
AcDb2dVertex
 10
7.731798005
 20
6.6717404031
 30
0.0
  0
VERTEX
  5
4AF
330
26E
100
AcDbEntity
  8
0
  6
CONTINUOUS
 62
     7
100
AcDbVertex
100
AcDb2dVertex
 10
7.7329137582
 20
6.6492112181
 30
0.0
  0
VERTEX
  5
4B0
330
26E
100
AcDbEntity
  8
0
  6
CONTINUOUS
 62
     7
100
AcDbVertex
100
AcDb2dVertex
 10
7.7351418235
 20
6.6274314186
 30
0.0
  0
VERTEX
  5
4B1
330
26E
100
AcDbEntity
  8
0
  6
CONTINUOUS
 62
     7
100
AcDbVertex
100
AcDb2dVertex
 10
7.7384753292
 20
6.6064681776
 30
0.0
  0
VERTEX
  5
4B2
330
26E
100
AcDbEntity
  8
0
  6
CONTINUOUS
 62
     7
100
AcDbVertex
100
AcDb2dVertex
 10
7.7429039939
 20
6.5863861498
 30
0.0
  0
VERTEX
  5
4B3
330
26E
100
AcDbEntity
  8
0
  6
CONTINUOUS
 62
     7
100
AcDbVertex
100
AcDb2dVertex
 10
7.7484141589
 20
6.567247272
 30
0.0
  0
VERTEX
  5
4B4
330
26E
100
AcDbEntity
  8
0
  6
CONTINUOUS
 62
     7
100
AcDbVertex
100
AcDb2dVertex
 10
7.7549888299
 20
6.549110572
 30
0.0
  0
VERTEX
  5
4B5
330
26E
100
AcDbEntity
  8
0
  6
CONTINUOUS
 62
     7
100
AcDbVertex
100
AcDb2dVertex
 10
7.7626077291
 20
6.5320319868
 30
0.0
  0
VERTEX
  5
4B6
330
26E
100
AcDbEntity
  8
0
  6
CONTINUOUS
 62
     7
100
AcDbVertex
100
AcDb2dVertex
 10
7.7712473587
 20
6.5160641901
 30
0.0
  0
VERTEX
  5
4B7
330
26E
100
AcDbEntity
  8
0
  6
CONTINUOUS
 62
     7
100
AcDbVertex
100
AcDb2dVertex
 10
7.7808810722
 20
6.5012564295
 30
0.0
  0
VERTEX
  5
4B8
330
26E
100
AcDbEntity
  8
0
  6
CONTINUOUS
 62
     7
100
AcDbVertex
100
AcDb2dVertex
 10
7.7914791575
 20
6.4876543751
 30
0.0
  0
VERTEX
  5
4B9
330
26E
100
AcDbEntity
  8
0
  6
CONTINUOUS
 62
     7
100
AcDbVertex
100
AcDb2dVertex
 10
7.8030089281
 20
6.4752999781
 30
0.0
  0
VERTEX
  5
4BA
330
26E
100
AcDbEntity
  8
0
  6
CONTINUOUS
 62
     7
100
AcDbVertex
100
AcDb2dVertex
 10
7.815434824
 20
6.4642313417
 30
0.0
  0
VERTEX
  5
4BB
330
26E
100
AcDbEntity
  8
0
  6
CONTINUOUS
 62
     7
100
AcDbVertex
100
AcDb2dVertex
 10
7.8287185214
 20
6.4544826039
 30
0.0
  0
VERTEX
  5
4BC
330
26E
100
AcDbEntity
  8
0
  6
CONTINUOUS
 62
     7
100
AcDbVertex
100
AcDb2dVertex
 10
7.8428190508
 20
6.4460838314
 30
0.0
  0
VERTEX
  5
4BD
330
26E
100
AcDbEntity
  8
0
  6
CONTINUOUS
 62
     7
100
AcDbVertex
100
AcDb2dVertex
 10
7.8576929235
 20
6.4390609278
 30
0.0
  0
VERTEX
  5
4BE
330
26E
100
AcDbEntity
  8
0
  6
CONTINUOUS
 62
     7
100
AcDbVertex
100
AcDb2dVertex
 10
7.8647063674
 20
6.436326163
 30
0.0
  0
SEQEND
  5
4BF
330
26E
100
AcDbEntity
  8
0
  6
CONTINUOUS
 62
     7
  0
POLYLINE
  5
26F
330
1F
100
AcDbEntity
  8
0
  6
CONTINUOUS
 62
     7
100
AcDb2dPolyline
 66
     1
 10
0.0
 20
0.0
 30
0.0
  0
VERTEX
  5
4C0
330
26F
100
AcDbEntity
  8
0
  6
CONTINUOUS
 62
     7
100
AcDbVertex
100
AcDb2dVertex
 10
8.3466578151
 20
7.0947346182
 30
0.0
  0
VERTEX
  5
4C1
330
26F
100
AcDbEntity
  8
0
  6
CONTINUOUS
 62
     7
100
AcDbVertex
100
AcDb2dVertex
 10
8.3268920408
 20
7.0791180363
 30
0.0
  0
VERTEX
  5
4C2
330
26F
100
AcDbEntity
  8
0
  6
CONTINUOUS
 62
     7
100
AcDbVertex
100
AcDb2dVertex
 10
8.3073589484
 20
7.0623751684
 30
0.0
  0
VERTEX
  5
4C3
330
26F
100
AcDbEntity
  8
0
  6
CONTINUOUS
 62
     7
100
AcDbVertex
100
AcDb2dVertex
 10
8.2881187817
 20
7.0445576525
 30
0.0
  0
VERTEX
  5
4C4
330
26F
100
AcDbEntity
  8
0
  6
CONTINUOUS
 62
     7
100
AcDbVertex
100
AcDb2dVertex
 10
8.269230881
 20
7.0257204413
 30
0.0
  0
VERTEX
  5
4C5
330
26F
100
AcDbEntity
  8
0
  6
CONTINUOUS
 62
     7
100
AcDbVertex
100
AcDb2dVertex
 10
8.2507535003
 20
7.0059216322
 30
0.0
  0
VERTEX
  5
4C6
330
26F
100
AcDbEntity
  8
0
  6
CONTINUOUS
 62
     7
100
AcDbVertex
100
AcDb2dVertex
 10
8.2327436271
 20
6.9852222887
 30
0.0
  0
VERTEX
  5
4C7
330
26F
100
AcDbEntity
  8
0
  6
CONTINUOUS
 62
     7
100
AcDbVertex
100
AcDb2dVertex
 10
8.2152568074
 20
6.9636862512
 30
0.0
  0
VERTEX
  5
4C8
330
26F
100
AcDbEntity
  8
0
  6
CONTINUOUS
 62
     7
100
AcDbVertex
100
AcDb2dVertex
 10
8.1983469739
 20
6.9413799412
 30
0.0
  0
VERTEX
  5
4C9
330
26F
100
AcDbEntity
  8
0
  6
CONTINUOUS
 62
     7
100
AcDbVertex
100
AcDb2dVertex
 10
8.1820662796
 20
6.9183721554
 30
0.0
  0
VERTEX
  5
4CA
330
26F
100
AcDbEntity
  8
0
  6
CONTINUOUS
 62
     7
100
AcDbVertex
100
AcDb2dVertex
 10
8.1664649374
 20
6.8947338542
 30
0.0
  0
VERTEX
  5
4CB
330
26F
100
AcDbEntity
  8
0
  6
CONTINUOUS
 62
     7
100
AcDbVertex
100
AcDb2dVertex
 10
8.1515910646
 20
6.8705379427
 30
0.0
  0
VERTEX
  5
4CC
330
26F
100
AcDbEntity
  8
0
  6
CONTINUOUS
 62
     7
100
AcDbVertex
100
AcDb2dVertex
 10
8.1374905352
 20
6.8458590455
 30
0.0
  0
VERTEX
  5
4CD
330
26F
100
AcDbEntity
  8
0
  6
CONTINUOUS
 62
     7
100
AcDbVertex
100
AcDb2dVertex
 10
8.1242068378
 20
6.8207732771
 30
0.0
  0
VERTEX
  5
4CE
330
26F
100
AcDbEntity
  8
0
  6
CONTINUOUS
 62
     7
100
AcDbVertex
100
AcDb2dVertex
 10
8.1117809419
 20
6.7953580068
 30
0.0
  0
VERTEX
  5
4CF
330
26F
100
AcDbEntity
  8
0
  6
CONTINUOUS
 62
     7
100
AcDbVertex
100
AcDb2dVertex
 10
8.1002511713
 20
6.76969162
 30
0.0
  0
VERTEX
  5
4D0
330
26F
100
AcDbEntity
  8
0
  6
CONTINUOUS
 62
     7
100
AcDbVertex
100
AcDb2dVertex
 10
8.089653086
 20
6.7438532767
 30
0.0
  0
VERTEX
  5
4D1
330
26F
100
AcDbEntity
  8
0
  6
CONTINUOUS
 62
     7
100
AcDbVertex
100
AcDb2dVertex
 10
8.0800193725
 20
6.7179226672
 30
0.0
  0
VERTEX
  5
4D2
330
26F
100
AcDbEntity
  8
0
  6
CONTINUOUS
 62
     7
100
AcDbVertex
100
AcDb2dVertex
 10
8.071379743
 20
6.6919797666
 30
0.0
  0
VERTEX
  5
4D3
330
26F
100
AcDbEntity
  8
0
  6
CONTINUOUS
 62
     7
100
AcDbVertex
100
AcDb2dVertex
 10
8.0637608437
 20
6.6661045876
 30
0.0
  0
VERTEX
  5
4D4
330
26F
100
AcDbEntity
  8
0
  6
CONTINUOUS
 62
     7
100
AcDbVertex
100
AcDb2dVertex
 10
8.0571861727
 20
6.6403769341
 30
0.0
  0
VERTEX
  5
4D5
330
26F
100
AcDbEntity
  8
0
  6
CONTINUOUS
 62
     7
100
AcDbVertex
100
AcDb2dVertex
 10
8.0516760077
 20
6.6148761551
 30
0.0
  0
VERTEX
  5
4D6
330
26F
100
AcDbEntity
  8
0
  6
CONTINUOUS
 62
     7
100
AcDbVertex
100
AcDb2dVertex
 10
8.047247343
 20
6.5896808998
 30
0.0
  0
VERTEX
  5
4D7
330
26F
100
AcDbEntity
  8
0
  6
CONTINUOUS
 62
     7
100
AcDbVertex
100
AcDb2dVertex
 10
8.0439138374
 20
6.5648688752
 30
0.0
  0
VERTEX
  5
4D8
330
26F
100
AcDbEntity
  8
0
  6
CONTINUOUS
 62
     7
100
AcDbVertex
100
AcDb2dVertex
 10
8.041685772
 20
6.5405166063
 30
0.0
  0
VERTEX
  5
4D9
330
26F
100
AcDbEntity
  8
0
  6
CONTINUOUS
 62
     7
100
AcDbVertex
100
AcDb2dVertex
 10
8.0405700188
 20
6.5166991999
 30
0.0
  0
VERTEX
  5
4DA
330
26F
100
AcDbEntity
  8
0
  6
CONTINUOUS
 62
     7
100
AcDbVertex
100
AcDb2dVertex
 10
8.0405700188
 20
6.4934901137
 30
0.0
  0
VERTEX
  5
4DB
330
26F
100
AcDbEntity
  8
0
  6
CONTINUOUS
 62
     7
100
AcDbVertex
100
AcDb2dVertex
 10
8.041685772
 20
6.4709609287
 30
0.0
  0
VERTEX
  5
4DC
330
26F
100
AcDbEntity
  8
0
  6
CONTINUOUS
 62
     7
100
AcDbVertex
100
AcDb2dVertex
 10
8.0439138374
 20
6.4491811292
 30
0.0
  0
VERTEX
  5
4DD
330
26F
100
AcDbEntity
  8
0
  6
CONTINUOUS
 62
     7
100
AcDbVertex
100
AcDb2dVertex
 10
8.047247343
 20
6.4282178882
 30
0.0
  0
VERTEX
  5
4DE
330
26F
100
AcDbEntity
  8
0
  6
CONTINUOUS
 62
     7
100
AcDbVertex
100
AcDb2dVertex
 10
8.0516760077
 20
6.4081358604
 30
0.0
  0
VERTEX
  5
4DF
330
26F
100
AcDbEntity
  8
0
  6
CONTINUOUS
 62
     7
100
AcDbVertex
100
AcDb2dVertex
 10
8.0571861727
 20
6.3889969826
 30
0.0
  0
VERTEX
  5
4E0
330
26F
100
AcDbEntity
  8
0
  6
CONTINUOUS
 62
     7
100
AcDbVertex
100
AcDb2dVertex
 10
8.0637608437
 20
6.3708602825
 30
0.0
  0
VERTEX
  5
4E1
330
26F
100
AcDbEntity
  8
0
  6
CONTINUOUS
 62
     7
100
AcDbVertex
100
AcDb2dVertex
 10
8.071379743
 20
6.3537816974
 30
0.0
  0
VERTEX
  5
4E2
330
26F
100
AcDbEntity
  8
0
  6
CONTINUOUS
 62
     7
100
AcDbVertex
100
AcDb2dVertex
 10
8.0800193725
 20
6.3378139007
 30
0.0
  0
VERTEX
  5
4E3
330
26F
100
AcDbEntity
  8
0
  6
CONTINUOUS
 62
     7
100
AcDbVertex
100
AcDb2dVertex
 10
8.089653086
 20
6.3230061401
 30
0.0
  0
VERTEX
  5
4E4
330
26F
100
AcDbEntity
  8
0
  6
CONTINUOUS
 62
     7
100
AcDbVertex
100
AcDb2dVertex
 10
8.1002511713
 20
6.3094040857
 30
0.0
  0
VERTEX
  5
4E5
330
26F
100
AcDbEntity
  8
0
  6
CONTINUOUS
 62
     7
100
AcDbVertex
100
AcDb2dVertex
 10
8.1117809419
 20
6.2970496886
 30
0.0
  0
VERTEX
  5
4E6
330
26F
100
AcDbEntity
  8
0
  6
CONTINUOUS
 62
     7
100
AcDbVertex
100
AcDb2dVertex
 10
8.1242068378
 20
6.2859810523
 30
0.0
  0
VERTEX
  5
4E7
330
26F
100
AcDbEntity
  8
0
  6
CONTINUOUS
 62
     7
100
AcDbVertex
100
AcDb2dVertex
 10
8.1374905352
 20
6.2762323144
 30
0.0
  0
VERTEX
  5
4E8
330
26F
100
AcDbEntity
  8
0
  6
CONTINUOUS
 62
     7
100
AcDbVertex
100
AcDb2dVertex
 10
8.1515910646
 20
6.267833542
 30
0.0
  0
VERTEX
  5
4E9
330
26F
100
AcDbEntity
  8
0
  6
CONTINUOUS
 62
     7
100
AcDbVertex
100
AcDb2dVertex
 10
8.1664649374
 20
6.2608106384
 30
0.0
  0
VERTEX
  5
4EA
330
26F
100
AcDbEntity
  8
0
  6
CONTINUOUS
 62
     7
100
AcDbVertex
100
AcDb2dVertex
 10
8.1734783812
 20
6.2580758735
 30
0.0
  0
SEQEND
  5
4EB
330
26F
100
AcDbEntity
  8
0
  6
CONTINUOUS
 62
     7
  0
POLYLINE
  5
270
330
1F
100
AcDbEntity
  8
0
  6
CONTINUOUS
 62
     7
100
AcDb2dPolyline
 66
     1
 10
0.0
 20
0.0
 30
0.0
  0
VERTEX
  5
4EC
330
270
100
AcDbEntity
  8
0
  6
CONTINUOUS
 62
     7
100
AcDbVertex
100
AcDb2dVertex
 10
8.1979128017
 20
6.2409756958
 30
0.0
  0
VERTEX
  5
4ED
330
270
100
AcDbEntity
  8
0
  6
CONTINUOUS
 62
     7
100
AcDbVertex
100
AcDb2dVertex
 10
8.1889525375
 20
6.2465239329
 30
0.0
  0
VERTEX
  5
4EE
330
270
100
AcDbEntity
  8
0
  6
CONTINUOUS
 62
     7
100
AcDbVertex
100
AcDb2dVertex
 10
8.1756688401
 20
6.2562726707
 30
0.0
  0
VERTEX
  5
4EF
330
270
100
AcDbEntity
  8
0
  6
CONTINUOUS
 62
     7
100
AcDbVertex
100
AcDb2dVertex
 10
8.1632429442
 20
6.2673413071
 30
0.0
  0
VERTEX
  5
4F0
330
270
100
AcDbEntity
  8
0
  6
CONTINUOUS
 62
     7
100
AcDbVertex
100
AcDb2dVertex
 10
8.1517131736
 20
6.2796957041
 30
0.0
  0
VERTEX
  5
4F1
330
270
100
AcDbEntity
  8
0
  6
CONTINUOUS
 62
     7
100
AcDbVertex
100
AcDb2dVertex
 10
8.1411150883
 20
6.2932977586
 30
0.0
  0
VERTEX
  5
4F2
330
270
100
AcDbEntity
  8
0
  6
CONTINUOUS
 62
     7
100
AcDbVertex
100
AcDb2dVertex
 10
8.1314813748
 20
6.3081055191
 30
0.0
  0
VERTEX
  5
4F3
330
270
100
AcDbEntity
  8
0
  6
CONTINUOUS
 62
     7
100
AcDbVertex
100
AcDb2dVertex
 10
8.1228417453
 20
6.3240733158
 30
0.0
  0
VERTEX
  5
4F4
330
270
100
AcDbEntity
  8
0
  6
CONTINUOUS
 62
     7
100
AcDbVertex
100
AcDb2dVertex
 10
8.115222846
 20
6.341151901
 30
0.0
  0
VERTEX
  5
4F5
330
270
100
AcDbEntity
  8
0
  6
CONTINUOUS
 62
     7
100
AcDbVertex
100
AcDb2dVertex
 10
8.1086481751
 20
6.359288601
 30
0.0
  0
VERTEX
  5
4F6
330
270
100
AcDbEntity
  8
0
  6
CONTINUOUS
 62
     7
100
AcDbVertex
100
AcDb2dVertex
 10
8.10313801
 20
6.3784274789
 30
0.0
  0
VERTEX
  5
4F7
330
270
100
AcDbEntity
  8
0
  6
CONTINUOUS
 62
     7
100
AcDbVertex
100
AcDb2dVertex
 10
8.0987093453
 20
6.3985095066
 30
0.0
  0
VERTEX
  5
4F8
330
270
100
AcDbEntity
  8
0
  6
CONTINUOUS
 62
     7
100
AcDbVertex
100
AcDb2dVertex
 10
8.0953758397
 20
6.4194727476
 30
0.0
  0
VERTEX
  5
4F9
330
270
100
AcDbEntity
  8
0
  6
CONTINUOUS
 62
     7
100
AcDbVertex
100
AcDb2dVertex
 10
8.0931477743
 20
6.4412525471
 30
0.0
  0
VERTEX
  5
4FA
330
270
100
AcDbEntity
  8
0
  6
CONTINUOUS
 62
     7
100
AcDbVertex
100
AcDb2dVertex
 10
8.0920320211
 20
6.4637817321
 30
0.0
  0
VERTEX
  5
4FB
330
270
100
AcDbEntity
  8
0
  6
CONTINUOUS
 62
     7
100
AcDbVertex
100
AcDb2dVertex
 10
8.0920320211
 20
6.4869908184
 30
0.0
  0
VERTEX
  5
4FC
330
270
100
AcDbEntity
  8
0
  6
CONTINUOUS
 62
     7
100
AcDbVertex
100
AcDb2dVertex
 10
8.0931477743
 20
6.5108082247
 30
0.0
  0
VERTEX
  5
4FD
330
270
100
AcDbEntity
  8
0
  6
CONTINUOUS
 62
     7
100
AcDbVertex
100
AcDb2dVertex
 10
8.0953758397
 20
6.5351604936
 30
0.0
  0
VERTEX
  5
4FE
330
270
100
AcDbEntity
  8
0
  6
CONTINUOUS
 62
     7
100
AcDbVertex
100
AcDb2dVertex
 10
8.0987093453
 20
6.5599725182
 30
0.0
  0
VERTEX
  5
4FF
330
270
100
AcDbEntity
  8
0
  6
CONTINUOUS
 62
     7
100
AcDbVertex
100
AcDb2dVertex
 10
8.10313801
 20
6.5851677735
 30
0.0
  0
VERTEX
  5
500
330
270
100
AcDbEntity
  8
0
  6
CONTINUOUS
 62
     7
100
AcDbVertex
100
AcDb2dVertex
 10
8.1086481751
 20
6.6106685525
 30
0.0
  0
VERTEX
  5
501
330
270
100
AcDbEntity
  8
0
  6
CONTINUOUS
 62
     7
100
AcDbVertex
100
AcDb2dVertex
 10
8.115222846
 20
6.636396206
 30
0.0
  0
VERTEX
  5
502
330
270
100
AcDbEntity
  8
0
  6
CONTINUOUS
 62
     7
100
AcDbVertex
100
AcDb2dVertex
 10
8.1228417453
 20
6.662271385
 30
0.0
  0
VERTEX
  5
503
330
270
100
AcDbEntity
  8
0
  6
CONTINUOUS
 62
     7
100
AcDbVertex
100
AcDb2dVertex
 10
8.1314813748
 20
6.6882142857
 30
0.0
  0
VERTEX
  5
504
330
270
100
AcDbEntity
  8
0
  6
CONTINUOUS
 62
     7
100
AcDbVertex
100
AcDb2dVertex
 10
8.1411150883
 20
6.7141448951
 30
0.0
  0
VERTEX
  5
505
330
270
100
AcDbEntity
  8
0
  6
CONTINUOUS
 62
     7
100
AcDbVertex
100
AcDb2dVertex
 10
8.1517131736
 20
6.7399832384
 30
0.0
  0
VERTEX
  5
506
330
270
100
AcDbEntity
  8
0
  6
CONTINUOUS
 62
     7
100
AcDbVertex
100
AcDb2dVertex
 10
8.1632429442
 20
6.7656496252
 30
0.0
  0
VERTEX
  5
507
330
270
100
AcDbEntity
  8
0
  6
CONTINUOUS
 62
     7
100
AcDbVertex
100
AcDb2dVertex
 10
8.1756688401
 20
6.7910648956
 30
0.0
  0
VERTEX
  5
508
330
270
100
AcDbEntity
  8
0
  6
CONTINUOUS
 62
     7
100
AcDbVertex
100
AcDb2dVertex
 10
8.1889525375
 20
6.816150664
 30
0.0
  0
VERTEX
  5
509
330
270
100
AcDbEntity
  8
0
  6
CONTINUOUS
 62
     7
100
AcDbVertex
100
AcDb2dVertex
 10
8.2030530669
 20
6.8408295611
 30
0.0
  0
VERTEX
  5
50A
330
270
100
AcDbEntity
  8
0
  6
CONTINUOUS
 62
     7
100
AcDbVertex
100
AcDb2dVertex
 10
8.2179269397
 20
6.8650254727
 30
0.0
  0
VERTEX
  5
50B
330
270
100
AcDbEntity
  8
0
  6
CONTINUOUS
 62
     7
100
AcDbVertex
100
AcDb2dVertex
 10
8.2335282819
 20
6.8886637738
 30
0.0
  0
VERTEX
  5
50C
330
270
100
AcDbEntity
  8
0
  6
CONTINUOUS
 62
     7
100
AcDbVertex
100
AcDb2dVertex
 10
8.2498089762
 20
6.9116715596
 30
0.0
  0
VERTEX
  5
50D
330
270
100
AcDbEntity
  8
0
  6
CONTINUOUS
 62
     7
100
AcDbVertex
100
AcDb2dVertex
 10
8.2667188097
 20
6.9339778697
 30
0.0
  0
VERTEX
  5
50E
330
270
100
AcDbEntity
  8
0
  6
CONTINUOUS
 62
     7
100
AcDbVertex
100
AcDb2dVertex
 10
8.2842056294
 20
6.9555139071
 30
0.0
  0
VERTEX
  5
50F
330
270
100
AcDbEntity
  8
0
  6
CONTINUOUS
 62
     7
100
AcDbVertex
100
AcDb2dVertex
 10
8.3022155026
 20
6.9762132507
 30
0.0
  0
VERTEX
  5
510
330
270
100
AcDbEntity
  8
0
  6
CONTINUOUS
 62
     7
100
AcDbVertex
100
AcDb2dVertex
 10
8.3206928833
 20
6.9960120597
 30
0.0
  0
VERTEX
  5
511
330
270
100
AcDbEntity
  8
0
  6
CONTINUOUS
 62
     7
100
AcDbVertex
100
AcDb2dVertex
 10
8.339580784
 20
7.0148492709
 30
0.0
  0
VERTEX
  5
512
330
270
100
AcDbEntity
  8
0
  6
CONTINUOUS
 62
     7
100
AcDbVertex
100
AcDb2dVertex
 10
8.3588209507
 20
7.0326667868
 30
0.0
  0
VERTEX
  5
513
330
270
100
AcDbEntity
  8
0
  6
CONTINUOUS
 62
     7
100
AcDbVertex
100
AcDb2dVertex
 10
8.3783540431
 20
7.0494096548
 30
0.0
  0
VERTEX
  5
514
330
270
100
AcDbEntity
  8
0
  6
CONTINUOUS
 62
     7
100
AcDbVertex
100
AcDb2dVertex
 10
8.3981198174
 20
7.0650262366
 30
0.0
  0
SEQEND
  5
515
330
270
100
AcDbEntity
  8
0
  6
CONTINUOUS
 62
     7
  0
LINE
  5
271
330
1F
100
AcDbEntity
  8
0
  6
CONTINUOUS
 62
     7
100
AcDbLine
 10
8.3981198174
 20
7.0650262366
 30
0.0
 11
8.3466578151
 21
7.0947346182
 31
0.0
  0
LINE
  5
272
330
1F
100
AcDbEntity
  8
0
  6
CONTINUOUS
 62
     7
100
AcDbLine
 10
7.6330429975
 20
6.680873868
 30
0.0
 11
7.6845049998
 21
6.6511654865
 31
0.0
  0
ARC
  5
273
330
1F
100
AcDbEntity
  8
0
  6
CONTINUOUS
 62
     7
100
AcDbCircle
 10
7.8479858264
 20
6.6930164004
 30
0.0
 40
0.2152855332265908
100
AcDbArc
 50
183.23331179
 51
246.3959023562
  0
ARC
  5
274
330
1F
100
AcDbEntity
  8
0
  6
CONTINUOUS
 62
     7
100
AcDbCircle
 10
7.9104806026
 20
6.6681469614
 30
0.0
 40
0.2266127612793641
100
AcDbArc
 50
184.2975503544
 51
236.7458952547
  0
LINE
  5
275
330
1F
100
AcDbEntity
  8
0
  6
CONTINUOUS
 62
     7
100
AcDbLine
 10
7.9418150113
 20
6.5026235786
 30
0.0
 11
7.9932770136
 21
6.4729151971
 31
0.0
  0
ARC
  5
276
330
1F
100
AcDbEntity
  8
0
  6
CONTINUOUS
 62
     7
100
AcDbCircle
 10
8.1567578402
 20
6.514766111
 30
0.0
 40
0.2152855332265982
100
AcDbArc
 50
183.23331179
 51
246.3959023562
  0
ARC
  5
277
330
1F
100
AcDbEntity
  8
0
  6
CONTINUOUS
 62
     7
100
AcDbCircle
 10
8.2192526164
 20
6.489896672
 30
0.0
 40
0.2266127612793754
100
AcDbArc
 50
184.2975503544
 51
236.7458952547
  0
POLYLINE
  5
278
330
1F
100
AcDbEntity
  8
0
  6
CONTINUOUS
 62
     7
100
AcDb2dPolyline
 66
     1
 10
0.0
 20
0.0
 30
0.0
  0
VERTEX
  5
516
330
278
100
AcDbEntity
  8
0
  6
CONTINUOUS
 62
     7
100
AcDbVertex
100
AcDb2dVertex
 10
8.2709586315
 20
7.3777576616
 30
0.0
  0
VERTEX
  5
517
330
278
100
AcDbEntity
  8
0
  6
CONTINUOUS
 62
     7
100
AcDbVertex
100
AcDb2dVertex
 10
8.2651214313
 20
7.3824341696
 30
0.0
  0
VERTEX
  5
518
330
278
100
AcDbEntity
  8
0
  6
CONTINUOUS
 62
     7
100
AcDbVertex
100
AcDb2dVertex
 10
8.2516040201
 20
7.3918065335
 30
0.0
  0
VERTEX
  5
519
330
278
100
AcDbEntity
  8
0
  6
CONTINUOUS
 62
     7
100
AcDbVertex
100
AcDb2dVertex
 10
8.2372817449
 20
7.3998212309
 30
0.0
  0
VERTEX
  5
51A
330
278
100
AcDbEntity
  8
0
  6
CONTINUOUS
 62
     7
100
AcDbVertex
100
AcDb2dVertex
 10
8.2221987783
 20
7.406453543
 30
0.0
  0
VERTEX
  5
51B
330
278
100
AcDbEntity
  8
0
  6
CONTINUOUS
 62
     7
100
AcDbVertex
100
AcDb2dVertex
 10
8.206401639
 20
7.4116830146
 30
0.0
  0
VERTEX
  5
51C
330
278
100
AcDbEntity
  8
0
  6
CONTINUOUS
 62
     7
100
AcDbVertex
100
AcDb2dVertex
 10
8.1899390485
 20
7.4154935169
 30
0.0
  0
VERTEX
  5
51D
330
278
100
AcDbEntity
  8
0
  6
CONTINUOUS
 62
     7
100
AcDbVertex
100
AcDb2dVertex
 10
8.1728617804
 20
7.4178732976
 30
0.0
  0
VERTEX
  5
51E
330
278
100
AcDbEntity
  8
0
  6
CONTINUOUS
 62
     7
100
AcDbVertex
100
AcDb2dVertex
 10
8.1552225043
 20
7.4188150171
 30
0.0
  0
VERTEX
  5
51F
330
278
100
AcDbEntity
  8
0
  6
CONTINUOUS
 62
     7
100
AcDbVertex
100
AcDb2dVertex
 10
8.137075623
 20
7.4183157708
 30
0.0
  0
VERTEX
  5
520
330
278
100
AcDbEntity
  8
0
  6
CONTINUOUS
 62
     7
100
AcDbVertex
100
AcDb2dVertex
 10
8.118477105
 20
7.4163770986
 30
0.0
  0
VERTEX
  5
521
330
278
100
AcDbEntity
  8
0
  6
CONTINUOUS
 62
     7
100
AcDbVertex
100
AcDb2dVertex
 10
8.0994843117
 20
7.4130049797
 30
0.0
  0
VERTEX
  5
522
330
278
100
AcDbEntity
  8
0
  6
CONTINUOUS
 62
     7
100
AcDbVertex
100
AcDb2dVertex
 10
8.0801558203
 20
7.4082098143
 30
0.0
  0
VERTEX
  5
523
330
278
100
AcDbEntity
  8
0
  6
CONTINUOUS
 62
     7
100
AcDbVertex
100
AcDb2dVertex
 10
8.0605512436
 20
7.4020063917
 30
0.0
  0
VERTEX
  5
524
330
278
100
AcDbEntity
  8
0
  6
CONTINUOUS
 62
     7
100
AcDbVertex
100
AcDb2dVertex
 10
8.0407310459
 20
7.3944138444
 30
0.0
  0
VERTEX
  5
525
330
278
100
AcDbEntity
  8
0
  6
CONTINUOUS
 62
     7
100
AcDbVertex
100
AcDb2dVertex
 10
8.0207563564
 20
7.3854555891
 30
0.0
  0
VERTEX
  5
526
330
278
100
AcDbEntity
  8
0
  6
CONTINUOUS
 62
     7
100
AcDbVertex
100
AcDb2dVertex
 10
8.0006887807
 20
7.375159255
 30
0.0
  0
VERTEX
  5
527
330
278
100
AcDbEntity
  8
0
  6
CONTINUOUS
 62
     7
100
AcDbVertex
100
AcDb2dVertex
 10
7.9805902112
 20
7.3635565978
 30
0.0
  0
VERTEX
  5
528
330
278
100
AcDbEntity
  8
0
  6
CONTINUOUS
 62
     7
100
AcDbVertex
100
AcDb2dVertex
 10
7.9605226356
 20
7.3506834022
 30
0.0
  0
VERTEX
  5
529
330
278
100
AcDbEntity
  8
0
  6
CONTINUOUS
 62
     7
100
AcDbVertex
100
AcDb2dVertex
 10
7.940547946
 20
7.3365793718
 30
0.0
  0
VERTEX
  5
52A
330
278
100
AcDbEntity
  8
0
  6
CONTINUOUS
 62
     7
100
AcDbVertex
100
AcDb2dVertex
 10
7.9207277483
 20
7.321288006
 30
0.0
  0
VERTEX
  5
52B
330
278
100
AcDbEntity
  8
0
  6
CONTINUOUS
 62
     7
100
AcDbVertex
100
AcDb2dVertex
 10
7.9011231716
 20
7.3048564662
 30
0.0
  0
VERTEX
  5
52C
330
278
100
AcDbEntity
  8
0
  6
CONTINUOUS
 62
     7
100
AcDbVertex
100
AcDb2dVertex
 10
7.8817946803
 20
7.2873354304
 30
0.0
  0
VERTEX
  5
52D
330
278
100
AcDbEntity
  8
0
  6
CONTINUOUS
 62
     7
100
AcDbVertex
100
AcDb2dVertex
 10
7.8628018869
 20
7.2687789369
 30
0.0
  0
VERTEX
  5
52E
330
278
100
AcDbEntity
  8
0
  6
CONTINUOUS
 62
     7
100
AcDbVertex
100
AcDb2dVertex
 10
7.8442033689
 20
7.2492442173
 30
0.0
  0
VERTEX
  5
52F
330
278
100
AcDbEntity
  8
0
  6
CONTINUOUS
 62
     7
100
AcDbVertex
100
AcDb2dVertex
 10
7.8260564877
 20
7.2287915204
 30
0.0
  0
VERTEX
  5
530
330
278
100
AcDbEntity
  8
0
  6
CONTINUOUS
 62
     7
100
AcDbVertex
100
AcDb2dVertex
 10
7.8084172116
 20
7.2074839263
 30
0.0
  0
VERTEX
  5
531
330
278
100
AcDbEntity
  8
0
  6
CONTINUOUS
 62
     7
100
AcDbVertex
100
AcDb2dVertex
 10
7.7913399435
 20
7.1853871515
 30
0.0
  0
VERTEX
  5
532
330
278
100
AcDbEntity
  8
0
  6
CONTINUOUS
 62
     7
100
AcDbVertex
100
AcDb2dVertex
 10
7.774877353
 20
7.1625693468
 30
0.0
  0
VERTEX
  5
533
330
278
100
AcDbEntity
  8
0
  6
CONTINUOUS
 62
     7
100
AcDbVertex
100
AcDb2dVertex
 10
7.7590802137
 20
7.1391008865
 30
0.0
  0
VERTEX
  5
534
330
278
100
AcDbEntity
  8
0
  6
CONTINUOUS
 62
     7
100
AcDbVertex
100
AcDb2dVertex
 10
7.7439972471
 20
7.1150541518
 30
0.0
  0
VERTEX
  5
535
330
278
100
AcDbEntity
  8
0
  6
CONTINUOUS
 62
     7
100
AcDbVertex
100
AcDb2dVertex
 10
7.7296749719
 20
7.0905033073
 30
0.0
  0
VERTEX
  5
536
330
278
100
AcDbEntity
  8
0
  6
CONTINUOUS
 62
     7
100
AcDbVertex
100
AcDb2dVertex
 10
7.7161575606
 20
7.0655240727
 30
0.0
  0
VERTEX
  5
537
330
278
100
AcDbEntity
  8
0
  6
CONTINUOUS
 62
     7
100
AcDbVertex
100
AcDb2dVertex
 10
7.7034867036
 20
7.0401934884
 30
0.0
  0
VERTEX
  5
538
330
278
100
AcDbEntity
  8
0
  6
CONTINUOUS
 62
     7
100
AcDbVertex
100
AcDb2dVertex
 10
7.6917014802
 20
7.0145896789
 30
0.0
  0
VERTEX
  5
539
330
278
100
AcDbEntity
  8
0
  6
CONTINUOUS
 62
     7
100
AcDbVertex
100
AcDb2dVertex
 10
7.6808382382
 20
6.9887916111
 30
0.0
  0
VERTEX
  5
53A
330
278
100
AcDbEntity
  8
0
  6
CONTINUOUS
 62
     7
100
AcDbVertex
100
AcDb2dVertex
 10
7.6709304819
 20
6.9628788512
 30
0.0
  0
VERTEX
  5
53B
330
278
100
AcDbEntity
  8
0
  6
CONTINUOUS
 62
     7
100
AcDbVertex
100
AcDb2dVertex
 10
7.6620087687
 20
6.9369313191
 30
0.0
  0
VERTEX
  5
53C
330
278
100
AcDbEntity
  8
0
  6
CONTINUOUS
 62
     7
100
AcDbVertex
100
AcDb2dVertex
 10
7.6541006148
 20
6.9110290417
 30
0.0
  0
VERTEX
  5
53D
330
278
100
AcDbEntity
  8
0
  6
CONTINUOUS
 62
     7
100
AcDbVertex
100
AcDb2dVertex
 10
7.6472304106
 20
6.8852519067
 30
0.0
  0
VERTEX
  5
53E
330
278
100
AcDbEntity
  8
0
  6
CONTINUOUS
 62
     7
100
AcDbVertex
100
AcDb2dVertex
 10
7.641419345
 20
6.8596794156
 30
0.0
  0
VERTEX
  5
53F
330
278
100
AcDbEntity
  8
0
  6
CONTINUOUS
 62
     7
100
AcDbVertex
100
AcDb2dVertex
 10
7.6366853404
 20
6.8343904388
 30
0.0
  0
VERTEX
  5
540
330
278
100
AcDbEntity
  8
0
  6
CONTINUOUS
 62
     7
100
AcDbVertex
100
AcDb2dVertex
 10
7.6330429975
 20
6.8094629723
 30
0.0
  0
SEQEND
  5
541
330
278
100
AcDbEntity
  8
0
  6
CONTINUOUS
 62
     7
  0
LINE
  5
279
330
1F
100
AcDbEntity
  8
0
  6
CONTINUOUS
 62
     7
100
AcDbLine
 10
7.6845049998
 20
6.7797545907
 30
0.0
 11
7.6330429975
 21
6.8094629723
 31
0.0
  0
POLYLINE
  5
27A
330
1F
100
AcDbEntity
  8
0
  6
CONTINUOUS
 62
     7
100
AcDb2dPolyline
 66
     1
 10
0.0
 20
0.0
 30
0.0
  0
VERTEX
  5
542
330
27A
100
AcDbEntity
  8
0
  6
CONTINUOUS
 62
     7
100
AcDbVertex
100
AcDb2dVertex
 10
7.6845049998
 20
6.7797545907
 30
0.0
  0
VERTEX
  5
543
330
27A
100
AcDbEntity
  8
0
  6
CONTINUOUS
 62
     7
100
AcDbVertex
100
AcDb2dVertex
 10
7.6881473427
 20
6.8046820572
 30
0.0
  0
VERTEX
  5
544
330
27A
100
AcDbEntity
  8
0
  6
CONTINUOUS
 62
     7
100
AcDbVertex
100
AcDb2dVertex
 10
7.6928813473
 20
6.829971034
 30
0.0
  0
VERTEX
  5
545
330
27A
100
AcDbEntity
  8
0
  6
CONTINUOUS
 62
     7
100
AcDbVertex
100
AcDb2dVertex
 10
7.6986924129
 20
6.8555435251
 30
0.0
  0
VERTEX
  5
546
330
27A
100
AcDbEntity
  8
0
  6
CONTINUOUS
 62
     7
100
AcDbVertex
100
AcDb2dVertex
 10
7.7055626171
 20
6.8813206601
 30
0.0
  0
VERTEX
  5
547
330
27A
100
AcDbEntity
  8
0
  6
CONTINUOUS
 62
     7
100
AcDbVertex
100
AcDb2dVertex
 10
7.713470771
 20
6.9072229375
 30
0.0
  0
VERTEX
  5
548
330
27A
100
AcDbEntity
  8
0
  6
CONTINUOUS
 62
     7
100
AcDbVertex
100
AcDb2dVertex
 10
7.7223924842
 20
6.9331704697
 30
0.0
  0
VERTEX
  5
549
330
27A
100
AcDbEntity
  8
0
  6
CONTINUOUS
 62
     7
100
AcDbVertex
100
AcDb2dVertex
 10
7.7323002405
 20
6.9590832296
 30
0.0
  0
VERTEX
  5
54A
330
27A
100
AcDbEntity
  8
0
  6
CONTINUOUS
 62
     7
100
AcDbVertex
100
AcDb2dVertex
 10
7.7431634825
 20
6.9848812973
 30
0.0
  0
VERTEX
  5
54B
330
27A
100
AcDbEntity
  8
0
  6
CONTINUOUS
 62
     7
100
AcDbVertex
100
AcDb2dVertex
 10
7.7549487059
 20
7.0104851068
 30
0.0
  0
VERTEX
  5
54C
330
27A
100
AcDbEntity
  8
0
  6
CONTINUOUS
 62
     7
100
AcDbVertex
100
AcDb2dVertex
 10
7.7676195629
 20
7.0358156911
 30
0.0
  0
VERTEX
  5
54D
330
27A
100
AcDbEntity
  8
0
  6
CONTINUOUS
 62
     7
100
AcDbVertex
100
AcDb2dVertex
 10
7.7811369742
 20
7.0607949258
 30
0.0
  0
VERTEX
  5
54E
330
27A
100
AcDbEntity
  8
0
  6
CONTINUOUS
 62
     7
100
AcDbVertex
100
AcDb2dVertex
 10
7.7954592494
 20
7.0853457702
 30
0.0
  0
VERTEX
  5
54F
330
27A
100
AcDbEntity
  8
0
  6
CONTINUOUS
 62
     7
100
AcDbVertex
100
AcDb2dVertex
 10
7.810542216
 20
7.1093925049
 30
0.0
  0
VERTEX
  5
550
330
27A
100
AcDbEntity
  8
0
  6
CONTINUOUS
 62
     7
100
AcDbVertex
100
AcDb2dVertex
 10
7.8263393553
 20
7.1328609652
 30
0.0
  0
VERTEX
  5
551
330
27A
100
AcDbEntity
  8
0
  6
CONTINUOUS
 62
     7
100
AcDbVertex
100
AcDb2dVertex
 10
7.8428019458
 20
7.15567877
 30
0.0
  0
VERTEX
  5
552
330
27A
100
AcDbEntity
  8
0
  6
CONTINUOUS
 62
     7
100
AcDbVertex
100
AcDb2dVertex
 10
7.8598792139
 20
7.1777755447
 30
0.0
  0
VERTEX
  5
553
330
27A
100
AcDbEntity
  8
0
  6
CONTINUOUS
 62
     7
100
AcDbVertex
100
AcDb2dVertex
 10
7.87751849
 20
7.1990831389
 30
0.0
  0
VERTEX
  5
554
330
27A
100
AcDbEntity
  8
0
  6
CONTINUOUS
 62
     7
100
AcDbVertex
100
AcDb2dVertex
 10
7.8956653712
 20
7.2195358357
 30
0.0
  0
VERTEX
  5
555
330
27A
100
AcDbEntity
  8
0
  6
CONTINUOUS
 62
     7
100
AcDbVertex
100
AcDb2dVertex
 10
7.9142638892
 20
7.2390705553
 30
0.0
  0
VERTEX
  5
556
330
27A
100
AcDbEntity
  8
0
  6
CONTINUOUS
 62
     7
100
AcDbVertex
100
AcDb2dVertex
 10
7.9332566826
 20
7.2576270489
 30
0.0
  0
VERTEX
  5
557
330
27A
100
AcDbEntity
  8
0
  6
CONTINUOUS
 62
     7
100
AcDbVertex
100
AcDb2dVertex
 10
7.9525851739
 20
7.2751480846
 30
0.0
  0
VERTEX
  5
558
330
27A
100
AcDbEntity
  8
0
  6
CONTINUOUS
 62
     7
100
AcDbVertex
100
AcDb2dVertex
 10
7.9721897506
 20
7.2915796244
 30
0.0
  0
VERTEX
  5
559
330
27A
100
AcDbEntity
  8
0
  6
CONTINUOUS
 62
     7
100
AcDbVertex
100
AcDb2dVertex
 10
7.9920099483
 20
7.3068709903
 30
0.0
  0
VERTEX
  5
55A
330
27A
100
AcDbEntity
  8
0
  6
CONTINUOUS
 62
     7
100
AcDbVertex
100
AcDb2dVertex
 10
8.0119846379
 20
7.3209750207
 30
0.0
  0
VERTEX
  5
55B
330
27A
100
AcDbEntity
  8
0
  6
CONTINUOUS
 62
     7
100
AcDbVertex
100
AcDb2dVertex
 10
8.0320522135
 20
7.3338482162
 30
0.0
  0
VERTEX
  5
55C
330
27A
100
AcDbEntity
  8
0
  6
CONTINUOUS
 62
     7
100
AcDbVertex
100
AcDb2dVertex
 10
8.052150783
 20
7.3454508734
 30
0.0
  0
VERTEX
  5
55D
330
27A
100
AcDbEntity
  8
0
  6
CONTINUOUS
 62
     7
100
AcDbVertex
100
AcDb2dVertex
 10
8.0722183587
 20
7.3557472076
 30
0.0
  0
VERTEX
  5
55E
330
27A
100
AcDbEntity
  8
0
  6
CONTINUOUS
 62
     7
100
AcDbVertex
100
AcDb2dVertex
 10
8.0921930482
 20
7.3647054628
 30
0.0
  0
VERTEX
  5
55F
330
27A
100
AcDbEntity
  8
0
  6
CONTINUOUS
 62
     7
100
AcDbVertex
100
AcDb2dVertex
 10
8.112013246
 20
7.3722980101
 30
0.0
  0
VERTEX
  5
560
330
27A
100
AcDbEntity
  8
0
  6
CONTINUOUS
 62
     7
100
AcDbVertex
100
AcDb2dVertex
 10
8.1316178226
 20
7.3785014328
 30
0.0
  0
VERTEX
  5
561
330
27A
100
AcDbEntity
  8
0
  6
CONTINUOUS
 62
     7
100
AcDbVertex
100
AcDb2dVertex
 10
8.150946314
 20
7.3832965981
 30
0.0
  0
VERTEX
  5
562
330
27A
100
AcDbEntity
  8
0
  6
CONTINUOUS
 62
     7
100
AcDbVertex
100
AcDb2dVertex
 10
8.1699391073
 20
7.386668717
 30
0.0
  0
VERTEX
  5
563
330
27A
100
AcDbEntity
  8
0
  6
CONTINUOUS
 62
     7
100
AcDbVertex
100
AcDb2dVertex
 10
8.1885376253
 20
7.3886073892
 30
0.0
  0
VERTEX
  5
564
330
27A
100
AcDbEntity
  8
0
  6
CONTINUOUS
 62
     7
100
AcDbVertex
100
AcDb2dVertex
 10
8.2066845066
 20
7.3891066355
 30
0.0
  0
VERTEX
  5
565
330
27A
100
AcDbEntity
  8
0
  6
CONTINUOUS
 62
     7
100
AcDbVertex
100
AcDb2dVertex
 10
8.2243237827
 20
7.388164916
 30
0.0
  0
VERTEX
  5
566
330
27A
100
AcDbEntity
  8
0
  6
CONTINUOUS
 62
     7
100
AcDbVertex
100
AcDb2dVertex
 10
8.2414010508
 20
7.3857851353
 30
0.0
  0
VERTEX
  5
567
330
27A
100
AcDbEntity
  8
0
  6
CONTINUOUS
 62
     7
100
AcDbVertex
100
AcDb2dVertex
 10
8.2578636413
 20
7.381974633
 30
0.0
  0
VERTEX
  5
568
330
27A
100
AcDbEntity
  8
0
  6
CONTINUOUS
 62
     7
100
AcDbVertex
100
AcDb2dVertex
 10
8.2736607806
 20
7.3767451615
 30
0.0
  0
VERTEX
  5
569
330
27A
100
AcDbEntity
  8
0
  6
CONTINUOUS
 62
     7
100
AcDbVertex
100
AcDb2dVertex
 10
8.2887437472
 20
7.3701128493
 30
0.0
  0
VERTEX
  5
56A
330
27A
100
AcDbEntity
  8
0
  6
CONTINUOUS
 62
     7
100
AcDbVertex
100
AcDb2dVertex
 10
8.2979862133
 20
7.3651494578
 30
0.0
  0
SEQEND
  5
56B
330
27A
100
AcDbEntity
  8
0
  6
CONTINUOUS
 62
     7
  0
POLYLINE
  5
27B
330
1F
100
AcDbEntity
  8
0
  6
CONTINUOUS
 62
     7
100
AcDb2dPolyline
 66
     1
 10
0.0
 20
0.0
 30
0.0
  0
VERTEX
  5
56C
330
27B
100
AcDbEntity
  8
0
  6
CONTINUOUS
 62
     7
100
AcDbVertex
100
AcDb2dVertex
 10
8.5797306453
 20
7.1995073722
 30
0.0
  0
VERTEX
  5
56D
330
27B
100
AcDbEntity
  8
0
  6
CONTINUOUS
 62
     7
100
AcDbVertex
100
AcDb2dVertex
 10
8.5738934451
 20
7.2041838802
 30
0.0
  0
VERTEX
  5
56E
330
27B
100
AcDbEntity
  8
0
  6
CONTINUOUS
 62
     7
100
AcDbVertex
100
AcDb2dVertex
 10
8.5603760339
 20
7.213556244
 30
0.0
  0
VERTEX
  5
56F
330
27B
100
AcDbEntity
  8
0
  6
CONTINUOUS
 62
     7
100
AcDbVertex
100
AcDb2dVertex
 10
8.5460537587
 20
7.2215709415
 30
0.0
  0
VERTEX
  5
570
330
27B
100
AcDbEntity
  8
0
  6
CONTINUOUS
 62
     7
100
AcDbVertex
100
AcDb2dVertex
 10
8.5309707921
 20
7.2282032536
 30
0.0
  0
VERTEX
  5
571
330
27B
100
AcDbEntity
  8
0
  6
CONTINUOUS
 62
     7
100
AcDbVertex
100
AcDb2dVertex
 10
8.5151736528
 20
7.2334327252
 30
0.0
  0
VERTEX
  5
572
330
27B
100
AcDbEntity
  8
0
  6
CONTINUOUS
 62
     7
100
AcDbVertex
100
AcDb2dVertex
 10
8.4987110623
 20
7.2372432275
 30
0.0
  0
VERTEX
  5
573
330
27B
100
AcDbEntity
  8
0
  6
CONTINUOUS
 62
     7
100
AcDbVertex
100
AcDb2dVertex
 10
8.4816337942
 20
7.2396230082
 30
0.0
  0
VERTEX
  5
574
330
27B
100
AcDbEntity
  8
0
  6
CONTINUOUS
 62
     7
100
AcDbVertex
100
AcDb2dVertex
 10
8.4639945181
 20
7.2405647276
 30
0.0
  0
VERTEX
  5
575
330
27B
100
AcDbEntity
  8
0
  6
CONTINUOUS
 62
     7
100
AcDbVertex
100
AcDb2dVertex
 10
8.4458476368
 20
7.2400654814
 30
0.0
  0
VERTEX
  5
576
330
27B
100
AcDbEntity
  8
0
  6
CONTINUOUS
 62
     7
100
AcDbVertex
100
AcDb2dVertex
 10
8.4272491189
 20
7.2381268092
 30
0.0
  0
VERTEX
  5
577
330
27B
100
AcDbEntity
  8
0
  6
CONTINUOUS
 62
     7
100
AcDbVertex
100
AcDb2dVertex
 10
8.4082563255
 20
7.2347546903
 30
0.0
  0
VERTEX
  5
578
330
27B
100
AcDbEntity
  8
0
  6
CONTINUOUS
 62
     7
100
AcDbVertex
100
AcDb2dVertex
 10
8.3889278341
 20
7.2299595249
 30
0.0
  0
VERTEX
  5
579
330
27B
100
AcDbEntity
  8
0
  6
CONTINUOUS
 62
     7
100
AcDbVertex
100
AcDb2dVertex
 10
8.3693232575
 20
7.2237561023
 30
0.0
  0
VERTEX
  5
57A
330
27B
100
AcDbEntity
  8
0
  6
CONTINUOUS
 62
     7
100
AcDbVertex
100
AcDb2dVertex
 10
8.3495030597
 20
7.2161635549
 30
0.0
  0
VERTEX
  5
57B
330
27B
100
AcDbEntity
  8
0
  6
CONTINUOUS
 62
     7
100
AcDbVertex
100
AcDb2dVertex
 10
8.3295283702
 20
7.2072052997
 30
0.0
  0
VERTEX
  5
57C
330
27B
100
AcDbEntity
  8
0
  6
CONTINUOUS
 62
     7
100
AcDbVertex
100
AcDb2dVertex
 10
8.3094607946
 20
7.1969089656
 30
0.0
  0
VERTEX
  5
57D
330
27B
100
AcDbEntity
  8
0
  6
CONTINUOUS
 62
     7
100
AcDbVertex
100
AcDb2dVertex
 10
8.289362225
 20
7.1853063083
 30
0.0
  0
VERTEX
  5
57E
330
27B
100
AcDbEntity
  8
0
  6
CONTINUOUS
 62
     7
100
AcDbVertex
100
AcDb2dVertex
 10
8.2692946494
 20
7.1724331128
 30
0.0
  0
VERTEX
  5
57F
330
27B
100
AcDbEntity
  8
0
  6
CONTINUOUS
 62
     7
100
AcDbVertex
100
AcDb2dVertex
 10
8.2493199598
 20
7.1583290824
 30
0.0
  0
VERTEX
  5
580
330
27B
100
AcDbEntity
  8
0
  6
CONTINUOUS
 62
     7
100
AcDbVertex
100
AcDb2dVertex
 10
8.2294997621
 20
7.1430377166
 30
0.0
  0
VERTEX
  5
581
330
27B
100
AcDbEntity
  8
0
  6
CONTINUOUS
 62
     7
100
AcDbVertex
100
AcDb2dVertex
 10
8.2098951855
 20
7.1266061768
 30
0.0
  0
VERTEX
  5
582
330
27B
100
AcDbEntity
  8
0
  6
CONTINUOUS
 62
     7
100
AcDbVertex
100
AcDb2dVertex
 10
8.1905666941
 20
7.109085141
 30
0.0
  0
VERTEX
  5
583
330
27B
100
AcDbEntity
  8
0
  6
CONTINUOUS
 62
     7
100
AcDbVertex
100
AcDb2dVertex
 10
8.1715739007
 20
7.0905286475
 30
0.0
  0
VERTEX
  5
584
330
27B
100
AcDbEntity
  8
0
  6
CONTINUOUS
 62
     7
100
AcDbVertex
100
AcDb2dVertex
 10
8.1529753827
 20
7.0709939279
 30
0.0
  0
VERTEX
  5
585
330
27B
100
AcDbEntity
  8
0
  6
CONTINUOUS
 62
     7
100
AcDbVertex
100
AcDb2dVertex
 10
8.1348285015
 20
7.050541231
 30
0.0
  0
VERTEX
  5
586
330
27B
100
AcDbEntity
  8
0
  6
CONTINUOUS
 62
     7
100
AcDbVertex
100
AcDb2dVertex
 10
8.1171892254
 20
7.0292336369
 30
0.0
  0
VERTEX
  5
587
330
27B
100
AcDbEntity
  8
0
  6
CONTINUOUS
 62
     7
100
AcDbVertex
100
AcDb2dVertex
 10
8.1001119573
 20
7.0071368621
 30
0.0
  0
VERTEX
  5
588
330
27B
100
AcDbEntity
  8
0
  6
CONTINUOUS
 62
     7
100
AcDbVertex
100
AcDb2dVertex
 10
8.0836493668
 20
6.9843190574
 30
0.0
  0
VERTEX
  5
589
330
27B
100
AcDbEntity
  8
0
  6
CONTINUOUS
 62
     7
100
AcDbVertex
100
AcDb2dVertex
 10
8.0678522275
 20
6.9608505971
 30
0.0
  0
VERTEX
  5
58A
330
27B
100
AcDbEntity
  8
0
  6
CONTINUOUS
 62
     7
100
AcDbVertex
100
AcDb2dVertex
 10
8.0527692609
 20
6.9368038623
 30
0.0
  0
VERTEX
  5
58B
330
27B
100
AcDbEntity
  8
0
  6
CONTINUOUS
 62
     7
100
AcDbVertex
100
AcDb2dVertex
 10
8.0384469857
 20
6.9122530179
 30
0.0
  0
VERTEX
  5
58C
330
27B
100
AcDbEntity
  8
0
  6
CONTINUOUS
 62
     7
100
AcDbVertex
100
AcDb2dVertex
 10
8.0249295744
 20
6.8872737832
 30
0.0
  0
VERTEX
  5
58D
330
27B
100
AcDbEntity
  8
0
  6
CONTINUOUS
 62
     7
100
AcDbVertex
100
AcDb2dVertex
 10
8.0122587174
 20
6.861943199
 30
0.0
  0
VERTEX
  5
58E
330
27B
100
AcDbEntity
  8
0
  6
CONTINUOUS
 62
     7
100
AcDbVertex
100
AcDb2dVertex
 10
8.000473494
 20
6.8363393895
 30
0.0
  0
VERTEX
  5
58F
330
27B
100
AcDbEntity
  8
0
  6
CONTINUOUS
 62
     7
100
AcDbVertex
100
AcDb2dVertex
 10
7.989610252
 20
6.8105413217
 30
0.0
  0
VERTEX
  5
590
330
27B
100
AcDbEntity
  8
0
  6
CONTINUOUS
 62
     7
100
AcDbVertex
100
AcDb2dVertex
 10
7.9797024957
 20
6.7846285618
 30
0.0
  0
VERTEX
  5
591
330
27B
100
AcDbEntity
  8
0
  6
CONTINUOUS
 62
     7
100
AcDbVertex
100
AcDb2dVertex
 10
7.9707807825
 20
6.7586810296
 30
0.0
  0
VERTEX
  5
592
330
27B
100
AcDbEntity
  8
0
  6
CONTINUOUS
 62
     7
100
AcDbVertex
100
AcDb2dVertex
 10
7.9628726286
 20
6.7327787523
 30
0.0
  0
VERTEX
  5
593
330
27B
100
AcDbEntity
  8
0
  6
CONTINUOUS
 62
     7
100
AcDbVertex
100
AcDb2dVertex
 10
7.9560024244
 20
6.7070016173
 30
0.0
  0
VERTEX
  5
594
330
27B
100
AcDbEntity
  8
0
  6
CONTINUOUS
 62
     7
100
AcDbVertex
100
AcDb2dVertex
 10
7.9501913588
 20
6.6814291262
 30
0.0
  0
VERTEX
  5
595
330
27B
100
AcDbEntity
  8
0
  6
CONTINUOUS
 62
     7
100
AcDbVertex
100
AcDb2dVertex
 10
7.9454573542
 20
6.6561401494
 30
0.0
  0
VERTEX
  5
596
330
27B
100
AcDbEntity
  8
0
  6
CONTINUOUS
 62
     7
100
AcDbVertex
100
AcDb2dVertex
 10
7.9418150113
 20
6.6312126829
 30
0.0
  0
SEQEND
  5
597
330
27B
100
AcDbEntity
  8
0
  6
CONTINUOUS
 62
     7
  0
LINE
  5
27C
330
1F
100
AcDbEntity
  8
0
  6
CONTINUOUS
 62
     7
100
AcDbLine
 10
7.9932770136
 20
6.6015043013
 30
0.0
 11
7.9418150113
 21
6.6312126829
 31
0.0
  0
POLYLINE
  5
27D
330
1F
100
AcDbEntity
  8
0
  6
CONTINUOUS
 62
     7
100
AcDb2dPolyline
 66
     1
 10
0.0
 20
0.0
 30
0.0
  0
VERTEX
  5
598
330
27D
100
AcDbEntity
  8
0
  6
CONTINUOUS
 62
     7
100
AcDbVertex
100
AcDb2dVertex
 10
7.9932770136
 20
6.6015043013
 30
0.0
  0
VERTEX
  5
599
330
27D
100
AcDbEntity
  8
0
  6
CONTINUOUS
 62
     7
100
AcDbVertex
100
AcDb2dVertex
 10
7.9969193565
 20
6.6264317678
 30
0.0
  0
VERTEX
  5
59A
330
27D
100
AcDbEntity
  8
0
  6
CONTINUOUS
 62
     7
100
AcDbVertex
100
AcDb2dVertex
 10
8.0016533611
 20
6.6517207446
 30
0.0
  0
VERTEX
  5
59B
330
27D
100
AcDbEntity
  8
0
  6
CONTINUOUS
 62
     7
100
AcDbVertex
100
AcDb2dVertex
 10
8.0074644267
 20
6.6772932357
 30
0.0
  0
VERTEX
  5
59C
330
27D
100
AcDbEntity
  8
0
  6
CONTINUOUS
 62
     7
100
AcDbVertex
100
AcDb2dVertex
 10
8.0143346309
 20
6.7030703707
 30
0.0
  0
VERTEX
  5
59D
330
27D
100
AcDbEntity
  8
0
  6
CONTINUOUS
 62
     7
100
AcDbVertex
100
AcDb2dVertex
 10
8.0222427848
 20
6.7289726481
 30
0.0
  0
VERTEX
  5
59E
330
27D
100
AcDbEntity
  8
0
  6
CONTINUOUS
 62
     7
100
AcDbVertex
100
AcDb2dVertex
 10
8.031164498
 20
6.7549201803
 30
0.0
  0
VERTEX
  5
59F
330
27D
100
AcDbEntity
  8
0
  6
CONTINUOUS
 62
     7
100
AcDbVertex
100
AcDb2dVertex
 10
8.0410722543
 20
6.7808329402
 30
0.0
  0
VERTEX
  5
5A0
330
27D
100
AcDbEntity
  8
0
  6
CONTINUOUS
 62
     7
100
AcDbVertex
100
AcDb2dVertex
 10
8.0519354963
 20
6.8066310079
 30
0.0
  0
VERTEX
  5
5A1
330
27D
100
AcDbEntity
  8
0
  6
CONTINUOUS
 62
     7
100
AcDbVertex
100
AcDb2dVertex
 10
8.0637207197
 20
6.8322348174
 30
0.0
  0
VERTEX
  5
5A2
330
27D
100
AcDbEntity
  8
0
  6
CONTINUOUS
 62
     7
100
AcDbVertex
100
AcDb2dVertex
 10
8.0763915767
 20
6.8575654017
 30
0.0
  0
VERTEX
  5
5A3
330
27D
100
AcDbEntity
  8
0
  6
CONTINUOUS
 62
     7
100
AcDbVertex
100
AcDb2dVertex
 10
8.089908988
 20
6.8825446364
 30
0.0
  0
VERTEX
  5
5A4
330
27D
100
AcDbEntity
  8
0
  6
CONTINUOUS
 62
     7
100
AcDbVertex
100
AcDb2dVertex
 10
8.1042312632
 20
6.9070954808
 30
0.0
  0
VERTEX
  5
5A5
330
27D
100
AcDbEntity
  8
0
  6
CONTINUOUS
 62
     7
100
AcDbVertex
100
AcDb2dVertex
 10
8.1193142298
 20
6.9311422155
 30
0.0
  0
VERTEX
  5
5A6
330
27D
100
AcDbEntity
  8
0
  6
CONTINUOUS
 62
     7
100
AcDbVertex
100
AcDb2dVertex
 10
8.1351113691
 20
6.9546106758
 30
0.0
  0
VERTEX
  5
5A7
330
27D
100
AcDbEntity
  8
0
  6
CONTINUOUS
 62
     7
100
AcDbVertex
100
AcDb2dVertex
 10
8.1515739596
 20
6.9774284806
 30
0.0
  0
VERTEX
  5
5A8
330
27D
100
AcDbEntity
  8
0
  6
CONTINUOUS
 62
     7
100
AcDbVertex
100
AcDb2dVertex
 10
8.1686512277
 20
6.9995252553
 30
0.0
  0
VERTEX
  5
5A9
330
27D
100
AcDbEntity
  8
0
  6
CONTINUOUS
 62
     7
100
AcDbVertex
100
AcDb2dVertex
 10
8.1862905038
 20
7.0208328495
 30
0.0
  0
VERTEX
  5
5AA
330
27D
100
AcDbEntity
  8
0
  6
CONTINUOUS
 62
     7
100
AcDbVertex
100
AcDb2dVertex
 10
8.204437385
 20
7.0412855463
 30
0.0
  0
VERTEX
  5
5AB
330
27D
100
AcDbEntity
  8
0
  6
CONTINUOUS
 62
     7
100
AcDbVertex
100
AcDb2dVertex
 10
8.223035903
 20
7.0608202659
 30
0.0
  0
VERTEX
  5
5AC
330
27D
100
AcDbEntity
  8
0
  6
CONTINUOUS
 62
     7
100
AcDbVertex
100
AcDb2dVertex
 10
8.2420286964
 20
7.0793767594
 30
0.0
  0
VERTEX
  5
5AD
330
27D
100
AcDbEntity
  8
0
  6
CONTINUOUS
 62
     7
100
AcDbVertex
100
AcDb2dVertex
 10
8.2613571878
 20
7.0968977952
 30
0.0
  0
VERTEX
  5
5AE
330
27D
100
AcDbEntity
  8
0
  6
CONTINUOUS
 62
     7
100
AcDbVertex
100
AcDb2dVertex
 10
8.2809617644
 20
7.113329335
 30
0.0
  0
VERTEX
  5
5AF
330
27D
100
AcDbEntity
  8
0
  6
CONTINUOUS
 62
     7
100
AcDbVertex
100
AcDb2dVertex
 10
8.3007819621
 20
7.1286207008
 30
0.0
  0
VERTEX
  5
5B0
330
27D
100
AcDbEntity
  8
0
  6
CONTINUOUS
 62
     7
100
AcDbVertex
100
AcDb2dVertex
 10
8.3207566517
 20
7.1427247313
 30
0.0
  0
VERTEX
  5
5B1
330
27D
100
AcDbEntity
  8
0
  6
CONTINUOUS
 62
     7
100
AcDbVertex
100
AcDb2dVertex
 10
8.3408242273
 20
7.1555979268
 30
0.0
  0
VERTEX
  5
5B2
330
27D
100
AcDbEntity
  8
0
  6
CONTINUOUS
 62
     7
100
AcDbVertex
100
AcDb2dVertex
 10
8.3609227969
 20
7.167200584
 30
0.0
  0
VERTEX
  5
5B3
330
27D
100
AcDbEntity
  8
0
  6
CONTINUOUS
 62
     7
100
AcDbVertex
100
AcDb2dVertex
 10
8.3809903725
 20
7.1774969181
 30
0.0
  0
VERTEX
  5
5B4
330
27D
100
AcDbEntity
  8
0
  6
CONTINUOUS
 62
     7
100
AcDbVertex
100
AcDb2dVertex
 10
8.400965062
 20
7.1864551734
 30
0.0
  0
VERTEX
  5
5B5
330
27D
100
AcDbEntity
  8
0
  6
CONTINUOUS
 62
     7
100
AcDbVertex
100
AcDb2dVertex
 10
8.4207852598
 20
7.1940477207
 30
0.0
  0
VERTEX
  5
5B6
330
27D
100
AcDbEntity
  8
0
  6
CONTINUOUS
 62
     7
100
AcDbVertex
100
AcDb2dVertex
 10
8.4403898364
 20
7.2002511433
 30
0.0
  0
VERTEX
  5
5B7
330
27D
100
AcDbEntity
  8
0
  6
CONTINUOUS
 62
     7
100
AcDbVertex
100
AcDb2dVertex
 10
8.4597183278
 20
7.2050463087
 30
0.0
  0
VERTEX
  5
5B8
330
27D
100
AcDbEntity
  8
0
  6
CONTINUOUS
 62
     7
100
AcDbVertex
100
AcDb2dVertex
 10
8.4787111212
 20
7.2084184276
 30
0.0
  0
VERTEX
  5
5B9
330
27D
100
AcDbEntity
  8
0
  6
CONTINUOUS
 62
     7
100
AcDbVertex
100
AcDb2dVertex
 10
8.4973096391
 20
7.2103570998
 30
0.0
  0
VERTEX
  5
5BA
330
27D
100
AcDbEntity
  8
0
  6
CONTINUOUS
 62
     7
100
AcDbVertex
100
AcDb2dVertex
 10
8.5154565204
 20
7.2108563461
 30
0.0
  0
VERTEX
  5
5BB
330
27D
100
AcDbEntity
  8
0
  6
CONTINUOUS
 62
     7
100
AcDbVertex
100
AcDb2dVertex
 10
8.5330957965
 20
7.2099146266
 30
0.0
  0
VERTEX
  5
5BC
330
27D
100
AcDbEntity
  8
0
  6
CONTINUOUS
 62
     7
100
AcDbVertex
100
AcDb2dVertex
 10
8.5501730646
 20
7.2075348459
 30
0.0
  0
VERTEX
  5
5BD
330
27D
100
AcDbEntity
  8
0
  6
CONTINUOUS
 62
     7
100
AcDbVertex
100
AcDb2dVertex
 10
8.5666356551
 20
7.2037243436
 30
0.0
  0
VERTEX
  5
5BE
330
27D
100
AcDbEntity
  8
0
  6
CONTINUOUS
 62
     7
100
AcDbVertex
100
AcDb2dVertex
 10
8.5824327944
 20
7.198494872
 30
0.0
  0
VERTEX
  5
5BF
330
27D
100
AcDbEntity
  8
0
  6
CONTINUOUS
 62
     7
100
AcDbVertex
100
AcDb2dVertex
 10
8.597515761
 20
7.1918625599
 30
0.0
  0
VERTEX
  5
5C0
330
27D
100
AcDbEntity
  8
0
  6
CONTINUOUS
 62
     7
100
AcDbVertex
100
AcDb2dVertex
 10
8.6067582271
 20
7.1868991684
 30
0.0
  0
SEQEND
  5
5C1
330
27D
100
AcDbEntity
  8
0
  6
CONTINUOUS
 62
     7
  0
POLYLINE
  5
27E
330
1F
100
AcDbEntity
  8
0
  6
CONTINUOUS
 62
     7
100
AcDb2dPolyline
 66
     1
 10
0.0
 20
0.0
 30
0.0
  0
VERTEX
  5
5C2
330
27E
100
AcDbEntity
  8
0
  6
CONTINUOUS
 62
     7
100
AcDbVertex
100
AcDb2dVertex
 10
8.9157797984
 20
6.570592806
 30
0.0
  0
VERTEX
  5
5C3
330
27E
100
AcDbEntity
  8
0
  6
CONTINUOUS
 62
     7
100
AcDbVertex
100
AcDb2dVertex
 10
8.9152305459
 20
6.556354936
 30
0.0
  0
VERTEX
  5
5C4
330
27E
100
AcDbEntity
  8
0
  6
CONTINUOUS
 62
     7
100
AcDbVertex
100
AcDb2dVertex
 10
8.9135873394
 20
6.5416008918
 30
0.0
  0
VERTEX
  5
5C5
330
27E
100
AcDbEntity
  8
0
  6
CONTINUOUS
 62
     7
100
AcDbVertex
100
AcDb2dVertex
 10
8.9108637951
 20
6.5264529303
 30
0.0
  0
VERTEX
  5
5C6
330
27E
100
AcDbEntity
  8
0
  6
CONTINUOUS
 62
     7
100
AcDbVertex
100
AcDb2dVertex
 10
8.9070824812
 20
6.5110365721
 30
0.0
  0
VERTEX
  5
5C7
330
27E
100
AcDbEntity
  8
0
  6
CONTINUOUS
 62
     7
100
AcDbVertex
100
AcDb2dVertex
 10
8.9022747308
 20
6.4954795621
 30
0.0
  0
VERTEX
  5
5C8
330
27E
100
AcDbEntity
  8
0
  6
CONTINUOUS
 62
     7
100
AcDbVertex
100
AcDb2dVertex
 10
8.8964803824
 20
6.4799108106
 30
0.0
  0
VERTEX
  5
5C9
330
27E
100
AcDbEntity
  8
0
  6
CONTINUOUS
 62
     7
100
AcDbVertex
100
AcDb2dVertex
 10
8.8897474499
 20
6.464459325
 30
0.0
  0
VERTEX
  5
5CA
330
27E
100
AcDbEntity
  8
0
  6
CONTINUOUS
 62
     7
100
AcDbVertex
100
AcDb2dVertex
 10
8.8821317245
 20
6.4492531414
 30
0.0
  0
VERTEX
  5
5CB
330
27E
100
AcDbEntity
  8
0
  6
CONTINUOUS
 62
     7
100
AcDbVertex
100
AcDb2dVertex
 10
8.8736963124
 20
6.4344182629
 30
0.0
  0
VERTEX
  5
5CC
330
27E
100
AcDbEntity
  8
0
  6
CONTINUOUS
 62
     7
100
AcDbVertex
100
AcDb2dVertex
 10
8.8645111122
 20
6.420077616
 30
0.0
  0
VERTEX
  5
5CD
330
27E
100
AcDbEntity
  8
0
  6
CONTINUOUS
 62
     7
100
AcDbVertex
100
AcDb2dVertex
 10
8.8546522352
 20
6.4063500318
 30
0.0
  0
VERTEX
  5
5CE
330
27E
100
AcDbEntity
  8
0
  6
CONTINUOUS
 62
     7
100
AcDbVertex
100
AcDb2dVertex
 10
8.8442013753
 20
6.3933492615
 30
0.0
  0
VERTEX
  5
5CF
330
27E
100
AcDbEntity
  8
0
  6
CONTINUOUS
 62
     7
100
AcDbVertex
100
AcDb2dVertex
 10
8.8332451316
 20
6.3811830334
 30
0.0
  0
VERTEX
  5
5D0
330
27E
100
AcDbEntity
  8
0
  6
CONTINUOUS
 62
     7
100
AcDbVertex
100
AcDb2dVertex
 10
8.8218742909
 20
6.3699521608
 30
0.0
  0
VERTEX
  5
5D1
330
27E
100
AcDbEntity
  8
0
  6
CONTINUOUS
 62
     7
100
AcDbVertex
100
AcDb2dVertex
 10
8.8101830756
 20
6.3597497062
 30
0.0
  0
VERTEX
  5
5D2
330
27E
100
AcDbEntity
  8
0
  6
CONTINUOUS
 62
     7
100
AcDbVertex
100
AcDb2dVertex
 10
8.7982683629
 20
6.3506602104
 30
0.0
  0
VERTEX
  5
5D3
330
27E
100
AcDbEntity
  8
0
  6
CONTINUOUS
 62
     7
100
AcDbVertex
100
AcDb2dVertex
 10
8.7862288817
 20
6.3427589918
 30
0.0
  0
VERTEX
  5
5D4
330
27E
100
AcDbEntity
  8
0
  6
CONTINUOUS
 62
     7
100
AcDbVertex
100
AcDb2dVertex
 10
8.7741643951
 20
6.3361115224
 30
0.0
  0
VERTEX
  5
5D5
330
27E
100
AcDbEntity
  8
0
  6
CONTINUOUS
 62
     7
100
AcDbVertex
100
AcDb2dVertex
 10
8.762174873
 20
6.3307728853
 30
0.0
  0
VERTEX
  5
5D6
330
27E
100
AcDbEntity
  8
0
  6
CONTINUOUS
 62
     7
100
AcDbVertex
100
AcDb2dVertex
 10
8.7503596646
 20
6.3267873179
 30
0.0
  0
VERTEX
  5
5D7
330
27E
100
AcDbEntity
  8
0
  6
CONTINUOUS
 62
     7
100
AcDbVertex
100
AcDb2dVertex
 10
8.7388166744
 20
6.3241878461
 30
0.0
  0
VERTEX
  5
5D8
330
27E
100
AcDbEntity
  8
0
  6
CONTINUOUS
 62
     7
100
AcDbVertex
100
AcDb2dVertex
 10
8.7276415511
 20
6.3229960098
 30
0.0
  0
VERTEX
  5
5D9
330
27E
100
AcDbEntity
  8
0
  6
CONTINUOUS
 62
     7
100
AcDbVertex
100
AcDb2dVertex
 10
8.7169268954
 20
6.323221685
 30
0.0
  0
VERTEX
  5
5DA
330
27E
100
AcDbEntity
  8
0
  6
CONTINUOUS
 62
     7
100
AcDbVertex
100
AcDb2dVertex
 10
8.7067614923
 20
6.3248630017
 30
0.0
  0
VERTEX
  5
5DB
330
27E
100
AcDbEntity
  8
0
  6
CONTINUOUS
 62
     7
100
AcDbVertex
100
AcDb2dVertex
 10
8.6972295755
 20
6.3279063594
 30
0.0
  0
VERTEX
  5
5DC
330
27E
100
AcDbEntity
  8
0
  6
CONTINUOUS
 62
     7
100
AcDbVertex
100
AcDb2dVertex
 10
8.6884101295
 20
6.3323265399
 30
0.0
  0
VERTEX
  5
5DD
330
27E
100
AcDbEntity
  8
0
  6
CONTINUOUS
 62
     7
100
AcDbVertex
100
AcDb2dVertex
 10
8.680376235
 20
6.3380869161
 30
0.0
  0
VERTEX
  5
5DE
330
27E
100
AcDbEntity
  8
0
  6
CONTINUOUS
 62
     7
100
AcDbVertex
100
AcDb2dVertex
 10
8.6731944634
 20
6.3451397558
 30
0.0
  0
VERTEX
  5
5DF
330
27E
100
AcDbEntity
  8
0
  6
CONTINUOUS
 62
     7
100
AcDbVertex
100
AcDb2dVertex
 10
8.6669243251
 20
6.353426617
 30
0.0
  0
VERTEX
  5
5E0
330
27E
100
AcDbEntity
  8
0
  6
CONTINUOUS
 62
     7
100
AcDbVertex
100
AcDb2dVertex
 10
8.6616177764
 20
6.362878832
 30
0.0
  0
VERTEX
  5
5E1
330
27E
100
AcDbEntity
  8
0
  6
CONTINUOUS
 62
     7
100
AcDbVertex
100
AcDb2dVertex
 10
8.6573187891
 20
6.3734180769
 30
0.0
  0
VERTEX
  5
5E2
330
27E
100
AcDbEntity
  8
0
  6
CONTINUOUS
 62
     7
100
AcDbVertex
100
AcDb2dVertex
 10
8.6540629859
 20
6.3849570202
 30
0.0
  0
VERTEX
  5
5E3
330
27E
100
AcDbEntity
  8
0
  6
CONTINUOUS
 62
     7
100
AcDbVertex
100
AcDb2dVertex
 10
8.6518773455
 20
6.3974000465
 30
0.0
  0
VERTEX
  5
5E4
330
27E
100
AcDbEntity
  8
0
  6
CONTINUOUS
 62
     7
100
AcDbVertex
100
AcDb2dVertex
 10
8.6507799787
 20
6.410644049
 30
0.0
  0
VERTEX
  5
5E5
330
27E
100
AcDbEntity
  8
0
  6
CONTINUOUS
 62
     7
100
AcDbVertex
100
AcDb2dVertex
 10
8.6507799787
 20
6.4245792837
 30
0.0
  0
VERTEX
  5
5E6
330
27E
100
AcDbEntity
  8
0
  6
CONTINUOUS
 62
     7
100
AcDbVertex
100
AcDb2dVertex
 10
8.6518773455
 20
6.4390902789
 30
0.0
  0
VERTEX
  5
5E7
330
27E
100
AcDbEntity
  8
0
  6
CONTINUOUS
 62
     7
100
AcDbVertex
100
AcDb2dVertex
 10
8.6540629859
 20
6.454056792
 30
0.0
  0
VERTEX
  5
5E8
330
27E
100
AcDbEntity
  8
0
  6
CONTINUOUS
 62
     7
100
AcDbVertex
100
AcDb2dVertex
 10
8.6573187891
 20
6.4693548055
 30
0.0
  0
VERTEX
  5
5E9
330
27E
100
AcDbEntity
  8
0
  6
CONTINUOUS
 62
     7
100
AcDbVertex
100
AcDb2dVertex
 10
8.6616177764
 20
6.4848575555
 30
0.0
  0
VERTEX
  5
5EA
330
27E
100
AcDbEntity
  8
0
  6
CONTINUOUS
 62
     7
100
AcDbVertex
100
AcDb2dVertex
 10
8.6669243251
 20
6.5004365813
 30
0.0
  0
VERTEX
  5
5EB
330
27E
100
AcDbEntity
  8
0
  6
CONTINUOUS
 62
     7
100
AcDbVertex
100
AcDb2dVertex
 10
8.6731944634
 20
6.51596279
 30
0.0
  0
VERTEX
  5
5EC
330
27E
100
AcDbEntity
  8
0
  6
CONTINUOUS
 62
     7
100
AcDbVertex
100
AcDb2dVertex
 10
8.680376235
 20
6.5313075268
 30
0.0
  0
VERTEX
  5
5ED
330
27E
100
AcDbEntity
  8
0
  6
CONTINUOUS
 62
     7
100
AcDbVertex
100
AcDb2dVertex
 10
8.6884101295
 20
6.5463436402
 30
0.0
  0
VERTEX
  5
5EE
330
27E
100
AcDbEntity
  8
0
  6
CONTINUOUS
 62
     7
100
AcDbVertex
100
AcDb2dVertex
 10
8.6972295755
 20
6.5609465362
 30
0.0
  0
VERTEX
  5
5EF
330
27E
100
AcDbEntity
  8
0
  6
CONTINUOUS
 62
     7
100
AcDbVertex
100
AcDb2dVertex
 10
8.7067614923
 20
6.5749952108
 30
0.0
  0
VERTEX
  5
5F0
330
27E
100
AcDbEntity
  8
0
  6
CONTINUOUS
 62
     7
100
AcDbVertex
100
AcDb2dVertex
 10
8.7169268954
 20
6.5883732521
 30
0.0
  0
VERTEX
  5
5F1
330
27E
100
AcDbEntity
  8
0
  6
CONTINUOUS
 62
     7
100
AcDbVertex
100
AcDb2dVertex
 10
8.7276415511
 20
6.6009698054
 30
0.0
  0
VERTEX
  5
5F2
330
27E
100
AcDbEntity
  8
0
  6
CONTINUOUS
 62
     7
100
AcDbVertex
100
AcDb2dVertex
 10
8.7388166744
 20
6.6126804919
 30
0.0
  0
VERTEX
  5
5F3
330
27E
100
AcDbEntity
  8
0
  6
CONTINUOUS
 62
     7
100
AcDbVertex
100
AcDb2dVertex
 10
8.7503596646
 20
6.6234082729
 30
0.0
  0
VERTEX
  5
5F4
330
27E
100
AcDbEntity
  8
0
  6
CONTINUOUS
 62
     7
100
AcDbVertex
100
AcDb2dVertex
 10
8.762174873
 20
6.6330642549
 30
0.0
  0
VERTEX
  5
5F5
330
27E
100
AcDbEntity
  8
0
  6
CONTINUOUS
 62
     7
100
AcDbVertex
100
AcDb2dVertex
 10
8.7741643951
 20
6.6415684251
 30
0.0
  0
VERTEX
  5
5F6
330
27E
100
AcDbEntity
  8
0
  6
CONTINUOUS
 62
     7
100
AcDbVertex
100
AcDb2dVertex
 10
8.7862288817
 20
6.6488503156
 30
0.0
  0
VERTEX
  5
5F7
330
27E
100
AcDbEntity
  8
0
  6
CONTINUOUS
 62
     7
100
AcDbVertex
100
AcDb2dVertex
 10
8.7982683629
 20
6.654849586
 30
0.0
  0
VERTEX
  5
5F8
330
27E
100
AcDbEntity
  8
0
  6
CONTINUOUS
 62
     7
100
AcDbVertex
100
AcDb2dVertex
 10
8.8101830756
 20
6.6595165248
 30
0.0
  0
VERTEX
  5
5F9
330
27E
100
AcDbEntity
  8
0
  6
CONTINUOUS
 62
     7
100
AcDbVertex
100
AcDb2dVertex
 10
8.8218742909
 20
6.66281246
 30
0.0
  0
VERTEX
  5
5FA
330
27E
100
AcDbEntity
  8
0
  6
CONTINUOUS
 62
     7
100
AcDbVertex
100
AcDb2dVertex
 10
8.8332451316
 20
6.6647100806
 30
0.0
  0
VERTEX
  5
5FB
330
27E
100
AcDbEntity
  8
0
  6
CONTINUOUS
 62
     7
100
AcDbVertex
100
AcDb2dVertex
 10
8.8442013753
 20
6.6651936623
 30
0.0
  0
VERTEX
  5
5FC
330
27E
100
AcDbEntity
  8
0
  6
CONTINUOUS
 62
     7
100
AcDbVertex
100
AcDb2dVertex
 10
8.8546522352
 20
6.6642591979
 30
0.0
  0
VERTEX
  5
5FD
330
27E
100
AcDbEntity
  8
0
  6
CONTINUOUS
 62
     7
100
AcDbVertex
100
AcDb2dVertex
 10
8.8645111122
 20
6.6619144308
 30
0.0
  0
VERTEX
  5
5FE
330
27E
100
AcDbEntity
  8
0
  6
CONTINUOUS
 62
     7
100
AcDbVertex
100
AcDb2dVertex
 10
8.8736963124
 20
6.6581787904
 30
0.0
  0
VERTEX
  5
5FF
330
27E
100
AcDbEntity
  8
0
  6
CONTINUOUS
 62
     7
100
AcDbVertex
100
AcDb2dVertex
 10
8.8821317245
 20
6.6530832314
 30
0.0
  0
VERTEX
  5
600
330
27E
100
AcDbEntity
  8
0
  6
CONTINUOUS
 62
     7
100
AcDbVertex
100
AcDb2dVertex
 10
8.8897474499
 20
6.6466699772
 30
0.0
  0
VERTEX
  5
601
330
27E
100
AcDbEntity
  8
0
  6
CONTINUOUS
 62
     7
100
AcDbVertex
100
AcDb2dVertex
 10
8.8964803824
 20
6.63899217
 30
0.0
  0
VERTEX
  5
602
330
27E
100
AcDbEntity
  8
0
  6
CONTINUOUS
 62
     7
100
AcDbVertex
100
AcDb2dVertex
 10
8.9022747308
 20
6.6301134306
 30
0.0
  0
VERTEX
  5
603
330
27E
100
AcDbEntity
  8
0
  6
CONTINUOUS
 62
     7
100
AcDbVertex
100
AcDb2dVertex
 10
8.9070824812
 20
6.6201073311
 30
0.0
  0
VERTEX
  5
604
330
27E
100
AcDbEntity
  8
0
  6
CONTINUOUS
 62
     7
100
AcDbVertex
100
AcDb2dVertex
 10
8.9108637951
 20
6.609056785
 30
0.0
  0
VERTEX
  5
605
330
27E
100
AcDbEntity
  8
0
  6
CONTINUOUS
 62
     7
100
AcDbVertex
100
AcDb2dVertex
 10
8.9135873394
 20
6.5970533608
 30
0.0
  0
VERTEX
  5
606
330
27E
100
AcDbEntity
  8
0
  6
CONTINUOUS
 62
     7
100
AcDbVertex
100
AcDb2dVertex
 10
8.9152305459
 20
6.5841965225
 30
0.0
  0
VERTEX
  5
607
330
27E
100
AcDbEntity
  8
0
  6
CONTINUOUS
 62
     7
100
AcDbVertex
100
AcDb2dVertex
 10
8.9157797984
 20
6.570592806
 30
0.0
  0
SEQEND
  5
608
330
27E
100
AcDbEntity
  8
0
  6
CONTINUOUS
 62
     7
  0
SPLINE
  5
27F
330
1F
100
AcDbEntity
  8
0
  6
CONTINUOUS
 62
     7
100
AcDbSpline
210
0.0
220
0.0
230
1.0
 70
     8
 71
     3
 72
     9
 73
     5
 74
     0
 42
0.00000001
 43
0.00000001
 40
0.0
 40
0.0
 40
0.0
 40
0.0
 40
0.5650425159222172
 40
1.0
 40
1.0
 40
1.0
 40
1.0
 10
8.521526009663003
 20
7.048234521425481
 30
0.0
 10
8.5171517394629
 20
7.04544335849359
 30
0.0
 10
8.509410250854803
 20
7.040503618822255
 30
0.0
 10
8.504076875320308
 20
7.033873062622549
 30
0.0
 10
8.501757083716184
 20
7.030989052579888
 30
0.0
  0
SPLINE
  5
280
330
1F
100
AcDbEntity
  8
0
  6
CONTINUOUS
 62
     7
100
AcDbSpline
210
0.0
220
0.0
230
1.0
 70
     8
 71
     3
 72
    16
 73
    12
 74
     0
 42
0.00000001
 43
0.00000001
 40
0.0
 40
0.0
 40
0.0
 40
0.0
 40
0.000092817882149
 40
0.1611303820642571
 40
0.3038028070153059
 40
0.4282728308913101
 40
0.5348013078141728
 40
0.6413874390797139
 40
0.7659079616645181
 40
0.908622978470003
 40
1.0
 40
1.0
 40
1.0
 40
1.0
 10
8.486934163060749
 20
6.991701093496433
 30
0.0
 10
8.486933549545988
 20
6.99169732900173
 30
0.0
 10
8.485868497582302
 20
6.985162225467586
 30
0.0
 10
8.489428085909688
 20
6.972518163184433
 30
0.0
 10
8.49717135243706
 20
6.956358336559385
 30
0.0
 10
8.50839442228035
 20
6.943888652279316
 30
0.0
 10
8.521158951928639
 20
6.934600300072975
 30
0.0
 10
8.53614869204188
 20
6.927833555941691
 30
0.0
 10
8.554872156410665
 20
6.923181626693708
 30
0.0
 10
8.57444052027915
 20
6.921004459790143
 30
0.0
 10
8.587859100718145
 20
6.922237998075823
 30
0.0
 10
8.59309699741209
 20
6.922719505500381
 30
0.0
  0
SPLINE
  5
281
330
1F
100
AcDbEntity
  8
0
  6
CONTINUOUS
 62
     7
100
AcDbSpline
210
0.0
220
0.0
230
1.0
 70
     8
 71
     3
 72
    16
 73
    12
 74
     0
 42
0.00000001
 43
0.00000001
 40
0.0
 40
0.0
 40
0.0
 40
0.0
 40
0.0820484556414473
 40
0.2249634248696355
 40
0.3513130343572489
 40
0.461363937863045
 40
0.5712344703838035
 40
0.6974625646834445
 40
0.8403155267425398
 40
0.9999733271403874
 40
1.0
 40
1.0
 40
1.0
 40
1.0
 10
8.618179744487504
 20
6.92616428881466
 30
0.0
 10
8.622848137155067
 20
6.927023435237237
 30
0.0
 10
8.63564810511206
 20
6.929379073989682
 30
0.0
 10
8.654710327231118
 20
6.935708673813546
 30
0.0
 10
8.673634604836625
 20
6.943653233222832
 30
0.0
 10
8.688928111321216
 20
6.951799323555406
 30
0.0
 10
8.70189764221158
 20
6.96000208643953
 30
0.0
 10
8.7131236973341
 20
6.969286362582807
 30
0.0
 10
8.720709200375975
 20
6.980146110987617
 30
0.0
 10
8.724220020787895
 20
6.98770604660703
 30
0.0
 10
8.72315243818803
 20
6.991700697300065
 30
0.0
 10
8.723152259864614
 20
6.991701364545634
 30
0.0
  0
LINE
  5
282
330
1F
100
AcDbEntity
  8
0
  6
CONTINUOUS
 62
     7
100
AcDbLine
 10
8.5348153586
 20
7.0542860831
 30
0.0
 11
8.5215260097
 21
7.0482345214
 31
0.0
  0
LINE
  5
283
330
1F
100
AcDbEntity
  8
0
  6
CONTINUOUS
 62
     7
100
AcDbLine
 10
8.3466578151
 20
7.0947346182
 30
0.0
 11
8.3466578151
 21
7.0215599349
 31
0.0
  0
POLYLINE
  5
284
330
1F
100
AcDbEntity
  8
0
  6
CONTINUOUS
 62
     7
100
AcDb2dPolyline
 66
     1
 10
0.0
 20
0.0
 30
0.0
  0
VERTEX
  5
609
330
284
100
AcDbEntity
  8
0
  6
CONTINUOUS
 62
     7
100
AcDbVertex
100
AcDb2dVertex
 10
8.8733533916
 20
6.570592806
 30
0.0
  0
VERTEX
  5
60A
330
284
100
AcDbEntity
  8
0
  6
CONTINUOUS
 62
     7
100
AcDbVertex
100
AcDb2dVertex
 10
8.8728000416
 20
6.5830767041
 30
0.0
  0
VERTEX
  5
60B
330
284
100
AcDbEntity
  8
0
  6
CONTINUOUS
 62
     7
100
AcDbVertex
100
AcDb2dVertex
 10
8.8711454911
 20
6.5947976472
 30
0.0
  0
VERTEX
  5
60C
330
284
100
AcDbEntity
  8
0
  6
CONTINUOUS
 62
     7
100
AcDbVertex
100
AcDb2dVertex
 10
8.8684061837
 20
6.6056391475
 30
0.0
  0
VERTEX
  5
60D
330
284
100
AcDbEntity
  8
0
  6
CONTINUOUS
 62
     7
100
AcDbVertex
100
AcDb2dVertex
 10
8.8646093439
 20
6.6154934572
 30
0.0
  0
VERTEX
  5
60E
330
284
100
AcDbEntity
  8
0
  6
CONTINUOUS
 62
     7
100
AcDbVertex
100
AcDb2dVertex
 10
8.8597927063
 20
6.6242626398
 30
0.0
  0
VERTEX
  5
60F
330
284
100
AcDbEntity
  8
0
  6
CONTINUOUS
 62
     7
100
AcDbVertex
100
AcDb2dVertex
 10
8.854004141
 20
6.6318595431
 30
0.0
  0
VERTEX
  5
610
330
284
100
AcDbEntity
  8
0
  6
CONTINUOUS
 62
     7
100
AcDbVertex
100
AcDb2dVertex
 10
8.8473011773
 20
6.6382086658
 30
0.0
  0
VERTEX
  5
611
330
284
100
AcDbEntity
  8
0
  6
CONTINUOUS
 62
     7
100
AcDbVertex
100
AcDb2dVertex
 10
8.8397504322
 20
6.6432469073
 30
0.0
  0
VERTEX
  5
612
330
284
100
AcDbEntity
  8
0
  6
CONTINUOUS
 62
     7
100
AcDbVertex
100
AcDb2dVertex
 10
8.8314269484
 20
6.6469241955
 30
0.0
  0
VERTEX
  5
613
330
284
100
AcDbEntity
  8
0
  6
CONTINUOUS
 62
     7
100
AcDbVertex
100
AcDb2dVertex
 10
8.8224134484
 20
6.6492039838
 30
0.0
  0
VERTEX
  5
614
330
284
100
AcDbEntity
  8
0
  6
CONTINUOUS
 62
     7
100
AcDbVertex
100
AcDb2dVertex
 10
8.8127995126
 20
6.6500636145
 30
0.0
  0
VERTEX
  5
615
330
284
100
AcDbEntity
  8
0
  6
CONTINUOUS
 62
     7
100
AcDbVertex
100
AcDb2dVertex
 10
8.8026806884
 20
6.6494945444
 30
0.0
  0
VERTEX
  5
616
330
284
100
AcDbEntity
  8
0
  6
CONTINUOUS
 62
     7
100
AcDbVertex
100
AcDb2dVertex
 10
8.7921575413
 20
6.647502429
 30
0.0
  0
VERTEX
  5
617
330
284
100
AcDbEntity
  8
0
  6
CONTINUOUS
 62
     7
100
AcDbVertex
100
AcDb2dVertex
 10
8.781334655
 20
6.6441070669
 30
0.0
  0
VERTEX
  5
618
330
284
100
AcDbEntity
  8
0
  6
CONTINUOUS
 62
     7
100
AcDbVertex
100
AcDb2dVertex
 10
8.7721219565
 20
6.6402097058
 30
0.0
  0
SEQEND
  5
619
330
284
100
AcDbEntity
  8
0
  6
CONTINUOUS
 62
     7
  0
POLYLINE
  5
285
330
1F
100
AcDbEntity
  8
0
  6
CONTINUOUS
 62
     7
100
AcDb2dPolyline
 66
     1
 10
0.0
 20
0.0
 30
0.0
  0
VERTEX
  5
61A
330
285
100
AcDbEntity
  8
0
  6
CONTINUOUS
 62
     7
100
AcDbVertex
100
AcDb2dVertex
 10
8.6511054102
 20
6.4305801853
 30
0.0
  0
VERTEX
  5
61B
330
285
100
AcDbEntity
  8
0
  6
CONTINUOUS
 62
     7
100
AcDbVertex
100
AcDb2dVertex
 10
8.6518863422
 20
6.4235773882
 30
0.0
  0
VERTEX
  5
61C
330
285
100
AcDbEntity
  8
0
  6
CONTINUOUS
 62
     7
100
AcDbVertex
100
AcDb2dVertex
 10
8.6540860055
 20
6.4122821256
 30
0.0
  0
VERTEX
  5
61D
330
285
100
AcDbEntity
  8
0
  6
CONTINUOUS
 62
     7
100
AcDbVertex
100
AcDb2dVertex
 10
8.6573581466
 20
6.4019213414
 30
0.0
  0
VERTEX
  5
61E
330
285
100
AcDbEntity
  8
0
  6
CONTINUOUS
 62
     7
100
AcDbVertex
100
AcDb2dVertex
 10
8.6616702455
 20
6.3925980056
 30
0.0
  0
VERTEX
  5
61F
330
285
100
AcDbEntity
  8
0
  6
CONTINUOUS
 62
     7
100
AcDbVertex
100
AcDb2dVertex
 10
8.6669794467
 20
6.3844047778
 30
0.0
  0
VERTEX
  5
620
330
285
100
AcDbEntity
  8
0
  6
CONTINUOUS
 62
     7
100
AcDbVertex
100
AcDb2dVertex
 10
8.6732329849
 20
6.377423086
 30
0.0
  0
VERTEX
  5
621
330
285
100
AcDbEntity
  8
0
  6
CONTINUOUS
 62
     7
100
AcDbVertex
100
AcDb2dVertex
 10
8.6803687096
 20
6.3717223174
 30
0.0
  0
VERTEX
  5
622
330
285
100
AcDbEntity
  8
0
  6
CONTINUOUS
 62
     7
100
AcDbVertex
100
AcDb2dVertex
 10
8.6883157028
 20
6.3673591287
 30
0.0
  0
VERTEX
  5
623
330
285
100
AcDbEntity
  8
0
  6
CONTINUOUS
 62
     7
100
AcDbVertex
100
AcDb2dVertex
 10
8.6969949837
 20
6.3643768833
 30
0.0
  0
VERTEX
  5
624
330
285
100
AcDbEntity
  8
0
  6
CONTINUOUS
 62
     7
100
AcDbVertex
100
AcDb2dVertex
 10
8.7063202937
 20
6.3628052202
 30
0.0
  0
VERTEX
  5
625
330
285
100
AcDbEntity
  8
0
  6
CONTINUOUS
 62
     7
100
AcDbVertex
100
AcDb2dVertex
 10
8.7161989537
 20
6.362659759
 30
0.0
  0
VERTEX
  5
626
330
285
100
AcDbEntity
  8
0
  6
CONTINUOUS
 62
     7
100
AcDbVertex
100
AcDb2dVertex
 10
8.7265327851
 20
6.3639419457
 30
0.0
  0
VERTEX
  5
627
330
285
100
AcDbEntity
  8
0
  6
CONTINUOUS
 62
     7
100
AcDbVertex
100
AcDb2dVertex
 10
8.7372190857
 20
6.3666390371
 30
0.0
  0
VERTEX
  5
628
330
285
100
AcDbEntity
  8
0
  6
CONTINUOUS
 62
     7
100
AcDbVertex
100
AcDb2dVertex
 10
8.7481516502
 20
6.3707242284
 30
0.0
  0
VERTEX
  5
629
330
285
100
AcDbEntity
  8
0
  6
CONTINUOUS
 62
     7
100
AcDbVertex
100
AcDb2dVertex
 10
8.7592218258
 20
6.3761569191
 30
0.0
  0
VERTEX
  5
62A
330
285
100
AcDbEntity
  8
0
  6
CONTINUOUS
 62
     7
100
AcDbVertex
100
AcDb2dVertex
 10
8.7703195923
 20
6.3828831168
 30
0.0
  0
VERTEX
  5
62B
330
285
100
AcDbEntity
  8
0
  6
CONTINUOUS
 62
     7
100
AcDbVertex
100
AcDb2dVertex
 10
8.781334655
 20
6.3908359733
 30
0.0
  0
VERTEX
  5
62C
330
285
100
AcDbEntity
  8
0
  6
CONTINUOUS
 62
     7
100
AcDbVertex
100
AcDb2dVertex
 10
8.7921575413
 20
6.3999364497
 30
0.0
  0
VERTEX
  5
62D
330
285
100
AcDbEntity
  8
0
  6
CONTINUOUS
 62
     7
100
AcDbVertex
100
AcDb2dVertex
 10
8.8026806884
 20
6.4100941014
 30
0.0
  0
VERTEX
  5
62E
330
285
100
AcDbEntity
  8
0
  6
CONTINUOUS
 62
     7
100
AcDbVertex
100
AcDb2dVertex
 10
8.8127995126
 20
6.421207977
 30
0.0
  0
VERTEX
  5
62F
330
285
100
AcDbEntity
  8
0
  6
CONTINUOUS
 62
     7
100
AcDbVertex
100
AcDb2dVertex
 10
8.8224134484
 20
6.4331676218
 30
0.0
  0
VERTEX
  5
630
330
285
100
AcDbEntity
  8
0
  6
CONTINUOUS
 62
     7
100
AcDbVertex
100
AcDb2dVertex
 10
8.8314269484
 20
6.4458541755
 30
0.0
  0
VERTEX
  5
631
330
285
100
AcDbEntity
  8
0
  6
CONTINUOUS
 62
     7
100
AcDbVertex
100
AcDb2dVertex
 10
8.8397504322
 20
6.4591415536
 30
0.0
  0
VERTEX
  5
632
330
285
100
AcDbEntity
  8
0
  6
CONTINUOUS
 62
     7
100
AcDbVertex
100
AcDb2dVertex
 10
8.8473011773
 20
6.4728976999
 30
0.0
  0
VERTEX
  5
633
330
285
100
AcDbEntity
  8
0
  6
CONTINUOUS
 62
     7
100
AcDbVertex
100
AcDb2dVertex
 10
8.854004141
 20
6.4869858998
 30
0.0
  0
VERTEX
  5
634
330
285
100
AcDbEntity
  8
0
  6
CONTINUOUS
 62
     7
100
AcDbVertex
100
AcDb2dVertex
 10
8.8597927063
 20
6.5012661383
 30
0.0
  0
VERTEX
  5
635
330
285
100
AcDbEntity
  8
0
  6
CONTINUOUS
 62
     7
100
AcDbVertex
100
AcDb2dVertex
 10
8.8646093439
 20
6.5155964922
 30
0.0
  0
VERTEX
  5
636
330
285
100
AcDbEntity
  8
0
  6
CONTINUOUS
 62
     7
100
AcDbVertex
100
AcDb2dVertex
 10
8.8684061837
 20
6.5298345398
 30
0.0
  0
VERTEX
  5
637
330
285
100
AcDbEntity
  8
0
  6
CONTINUOUS
 62
     7
100
AcDbVertex
100
AcDb2dVertex
 10
8.8711454911
 20
6.5438387771
 30
0.0
  0
VERTEX
  5
638
330
285
100
AcDbEntity
  8
0
  6
CONTINUOUS
 62
     7
100
AcDbVertex
100
AcDb2dVertex
 10
8.8728000416
 20
6.5574700237
 30
0.0
  0
VERTEX
  5
639
330
285
100
AcDbEntity
  8
0
  6
CONTINUOUS
 62
     7
100
AcDbVertex
100
AcDb2dVertex
 10
8.8733533916
 20
6.570592806
 30
0.0
  0
SEQEND
  5
63A
330
285
100
AcDbEntity
  8
0
  6
CONTINUOUS
 62
     7
  0
LINE
  5
286
330
1F
100
AcDbEntity
  8
0
  6
CONTINUOUS
 62
     7
100
AcDbLine
 10
8.0051884845
 20
6.6677974102
 30
0.0
 11
7.9418150113
 21
6.6312126829
 31
0.0
  0
SPLINE
  5
287
330
1F
100
AcDbEntity
  8
0
  6
CONTINUOUS
 62
     7
100
AcDbSpline
210
0.0
220
0.0
230
1.0
 70
     8
 71
     3
 72
    20
 73
    16
 74
     0
 42
0.00000001
 43
0.00000001
 40
0.0
 40
0.0
 40
0.0
 40
0.0
 40
0.0368012756859478
 40
0.0951355937245319
 40
0.1546566480808692
 40
0.2492796578733891
 40
0.3465674570825674
 40
0.4436082618326272
 40
0.5433557769185824
 40
0.6208739755642702
 40
0.7004767044306455
 40
0.7780849135150552
 40
0.8584746321044145
 40
0.928564624056147
 40
1.0
 40
1.0
 40
1.0
 40
1.0
 10
8.685418826204033
 20
6.540110823974581
 30
0.0
 10
8.687520450202728
 20
6.539195578319274
 30
0.0
 10
8.692953393576971
 20
6.536829561457127
 30
0.0
 10
8.7028077106604
 20
6.535411181579285
 30
0.0
 10
8.71653501781065
 20
6.535166840026287
 30
0.0
 10
8.732909961276869
 20
6.537945296252087
 30
0.0
 10
8.750813219191844
 20
6.544476879901212
 30
0.0
 10
8.767407746549368
 20
6.55415326885605
 30
0.0
 10
8.780638998270136
 20
6.565758712811822
 30
0.0
 10
8.790412266186468
 20
6.57855857244437
 30
0.0
 10
8.796747089598282
 20
6.591611411949918
 30
0.0
 10
8.80008859262527
 20
6.605840394895936
 30
0.0
 10
8.800006574439072
 20
6.620016443430779
 30
0.0
 10
8.797099089957774
 20
6.633843990349519
 30
0.0
 10
8.793178603750588
 20
6.642332896641419
 30
0.0
 10
8.791199725968765
 20
6.646617698873915
 30
0.0
  0
LINE
  5
288
330
1F
100
AcDbEntity
  8
0
  6
CONTINUOUS
 62
     7
100
AcDbLine
 10
8.1408098059
 20
7.2135681445
 30
0.0
 11
8.1408098059
 21
7.1403934612
 31
0.0
  0
LINE
  5
289
330
1F
100
AcDbEntity
  8
0
  6
CONTINUOUS
 62
     7
100
AcDbLine
 10
8.0378858013
 20
7.2729849076
 30
0.0
 11
8.0378858013
 21
7.1998102244
 31
0.0
  0
LINE
  5
28A
330
1F
100
AcDbEntity
  8
0
  6
CONTINUOUS
 62
     7
100
AcDbLine
 10
7.6964164707
 20
6.8460476996
 30
0.0
 11
7.6330429975
 21
6.8094629723
 31
0.0
  0
LINE
  5
28B
330
1F
100
AcDbEntity
  8
0
  6
CONTINUOUS
 62
     7
100
AcDbLine
 10
7.8320377921
 20
7.3918184339
 30
0.0
 11
7.8320377921
 21
7.3186437506
 31
0.0
  0
SPLINE
  5
28C
330
1F
100
AcDbEntity
  8
0
  6
CONTINUOUS
 62
     7
100
AcDbSpline
210
0.0
220
0.0
230
1.0
 70
     8
 71
     3
 72
    10
 73
     6
 74
     0
 42
0.00000001
 43
0.00000001
 40
0.0
 40
0.0
 40
0.0
 40
0.0
 40
0.4464849258631624
 40
0.958393713551855
 40
1.0
 40
1.0
 40
1.0
 40
1.0
 10
7.652953900488978
 20
7.549650527111871
 30
0.0
 10
7.648734585291812
 20
7.54678721134528
 30
0.0
 10
7.639677694619322
 20
7.540641015423189
 30
0.0
 10
7.631689045379739
 20
7.532673339288893
 30
0.0
 10
7.62916581307471
 20
7.527562706396344
 30
0.0
 10
7.628976148274303
 20
7.527178553432867
 30
0.0
  0
SPLINE
  5
28D
330
1F
100
AcDbEntity
  8
0
  6
CONTINUOUS
 62
     7
100
AcDbSpline
210
0.0
220
0.0
230
1.0
 70
     8
 71
     3
 72
    16
 73
    12
 74
     0
 42
0.00000001
 43
0.00000001
 40
0.0
 40
0.0
 40
0.0
 40
0.0
 40
0.0000928178821467
 40
0.1611303820651299
 40
0.3038028070164729
 40
0.428272830892191
 40
0.53480130781419
 40
0.641387439080146
 40
0.7659079616650932
 40
0.9086229784704418
 40
1.0
 40
1.0
 40
1.0
 40
1.0
 10
7.618362053886723
 20
7.493117099182822
 30
0.0
 10
7.618361440371963
 20
7.49311333468812
 30
0.0
 10
7.617296388408339
 20
7.486578231153863
 30
0.0
 10
7.620855976735656
 20
7.47393416887077
 30
0.0
 10
7.628599243263112
 20
7.457774342245656
 30
0.0
 10
7.639822313106395
 20
7.445304657965632
 30
0.0
 10
7.652586842754667
 20
7.436016305759334
 30
0.0
 10
7.667576582867898
 20
7.429249561628083
 30
0.0
 10
7.686300047236711
 20
7.424597632380104
 30
0.0
 10
7.705868411105177
 20
7.422420465476545
 30
0.0
 10
7.71928699154414
 20
7.423654003762218
 30
0.0
 10
7.724524888238059
 20
7.424135511186773
 30
0.0
  0
SPLINE
  5
28E
330
1F
100
AcDbEntity
  8
0
  6
CONTINUOUS
 62
     7
100
AcDbSpline
210
0.0
220
0.0
230
1.0
 70
     8
 71
     3
 72
    13
 73
     9
 74
     0
 42
0.00000001
 43
0.00000001
 40
0.0
 40
0.0
 40
0.0
 40
0.0
 40
0.1263584992387327
 40
0.3464543059077386
 40
0.5410386757090468
 40
0.7105222680330034
 40
0.8797280805163615
 40
1.0
 40
1.0
 40
1.0
 40
1.0
 10
7.74960763531347
 20
7.427580294501046
 30
0.0
 10
7.754276336481068
 20
7.428439415792894
 30
0.0
 10
7.767077150294589
 20
7.430794985640998
 30
0.0
 10
7.78612982803948
 20
7.437125362959473
 30
0.0
 10
7.805088006343718
 20
7.445067160782753
 30
0.0
 10
7.82027418160232
 20
7.453221994428075
 30
0.0
 10
7.83179101337084
 20
7.460255600291053
 30
0.0
 10
7.8369846926248
 20
7.46488501187051
 30
0.0
 10
7.839142557303412
 20
7.466808435178264
 30
0.0
  0
SPLINE
  5
28F
330
1F
100
AcDbEntity
  8
0
  6
CONTINUOUS
 62
     7
100
AcDbSpline
210
0.0
220
0.0
230
1.0
 70
     8
 71
     3
 72
    11
 73
     7
 74
     0
 42
0.00000001
 43
0.00000001
 40
0.0
 40
0.0
 40
0.0
 40
0.0
 40
0.1075445812093395
 40
0.5289466465323911
 40
0.9999213177104065
 40
1.0
 40
1.0
 40
1.0
 40
1.0
 10
7.840163737641705
 20
7.467666064431957
 30
0.0
 10
7.841263170938902
 20
7.468556044129121
 30
0.0
 10
7.846670617312287
 20
7.472933315126906
 30
0.0
 10
7.85188741267582
 20
7.481582303390211
 30
0.0
 10
7.855647918953653
 20
7.489122051699289
 30
0.0
 10
7.854580329015231
 20
7.493116702986355
 30
0.0
 10
7.854580150690589
 20
7.493117370232024
 30
0.0
  0
LINE
  5
290
330
1F
100
AcDbEntity
  8
0
  6
CONTINUOUS
 62
     7
100
AcDbLine
 10
7.6654063863
 20
7.555321007
 30
0.0
 11
7.6529539005
 21
7.5496505271
 31
0.0
  0
ARC
  5
291
330
1F
100
AcDbEntity
  8
0
  6
CONTINUOUS
 62
     7
100
AcDbCircle
 10
7.956843334
 20
6.9711145937
 30
0.0
 40
0.7399873335219596
100
AcDbArc
 50
122.5920354057
 51
177.413341127
  0
ARC
  5
292
330
1F
100
AcDbEntity
  8
0
  6
CONTINUOUS
 62
     7
100
AcDbCircle
 10
8.671592622
 20
6.6201368322
 30
0.0
 40
0.1141842636492853
100
AcDbArc
 50
0.5095282223
 51
12.4468115944
  0
POLYLINE
  5
293
330
1F
100
AcDbEntity
  8
0
  6
CONTINUOUS
 62
     7
100
AcDb2dPolyline
 66
     1
 10
0.0
 20
0.0
 30
0.0
  0
VERTEX
  5
63B
330
293
100
AcDbEntity
  8
0
  6
CONTINUOUS
 62
     7
100
AcDbVertex
100
AcDb2dVertex
 10
8.7128786438
 20
6.5832250417
 30
0.0
  0
VERTEX
  5
63C
330
293
100
AcDbEntity
  8
0
  6
CONTINUOUS
 62
     7
100
AcDbVertex
100
AcDb2dVertex
 10
8.7207540127
 20
6.5787336212
 30
0.0
  0
VERTEX
  5
63D
330
293
100
AcDbEntity
  8
0
  6
CONTINUOUS
 62
     7
100
AcDbVertex
100
AcDb2dVertex
 10
8.729397426
 20
6.5750047903
 30
0.0
  0
VERTEX
  5
63E
330
293
100
AcDbEntity
  8
0
  6
CONTINUOUS
 62
     7
100
AcDbVertex
100
AcDb2dVertex
 10
8.7378358299
 20
6.5726353292
 30
0.0
  0
VERTEX
  5
63F
330
293
100
AcDbEntity
  8
0
  6
CONTINUOUS
 62
     7
100
AcDbVertex
100
AcDb2dVertex
 10
8.7459361458
 20
6.5716626055
 30
0.0
  0
VERTEX
  5
640
330
293
100
AcDbEntity
  8
0
  6
CONTINUOUS
 62
     7
100
AcDbVertex
100
AcDb2dVertex
 10
8.7535706268
 20
6.5721019597
 30
0.0
  0
VERTEX
  5
641
330
293
100
AcDbEntity
  8
0
  6
CONTINUOUS
 62
     7
100
AcDbVertex
100
AcDb2dVertex
 10
8.7606188726
 20
6.573946463
 30
0.0
  0
VERTEX
  5
642
330
293
100
AcDbEntity
  8
0
  6
CONTINUOUS
 62
     7
100
AcDbVertex
100
AcDb2dVertex
 10
8.7669697281
 20
6.5771670263
 30
0.0
  0
VERTEX
  5
643
330
293
100
AcDbEntity
  8
0
  6
CONTINUOUS
 62
     7
100
AcDbVertex
100
AcDb2dVertex
 10
8.7725230366
 20
6.5817128596
 30
0.0
  0
VERTEX
  5
644
330
293
100
AcDbEntity
  8
0
  6
CONTINUOUS
 62
     7
100
AcDbVertex
100
AcDb2dVertex
 10
8.7771912191
 20
6.5875122722
 30
0.0
  0
VERTEX
  5
645
330
293
100
AcDbEntity
  8
0
  6
CONTINUOUS
 62
     7
100
AcDbVertex
100
AcDb2dVertex
 10
8.7809006555
 20
6.5944738041
 30
0.0
  0
VERTEX
  5
646
330
293
100
AcDbEntity
  8
0
  6
CONTINUOUS
 62
     7
100
AcDbVertex
100
AcDb2dVertex
 10
8.7835928458
 20
6.6024876676
 30
0.0
  0
VERTEX
  5
647
330
293
100
AcDbEntity
  8
0
  6
CONTINUOUS
 62
     7
100
AcDbVertex
100
AcDb2dVertex
 10
8.7852253326
 20
6.6114274794
 30
0.0
  0
VERTEX
  5
648
330
293
100
AcDbEntity
  8
0
  6
CONTINUOUS
 62
     7
100
AcDbVertex
100
AcDb2dVertex
 10
8.7857723706
 20
6.6211522532
 30
0.0
  0
SEQEND
  5
649
330
293
100
AcDbEntity
  8
0
  6
CONTINUOUS
 62
     7
  0
ARC
  5
294
330
1F
100
AcDbEntity
  8
0
  6
CONTINUOUS
 62
     7
100
AcDbCircle
 10
8.7681643392
 20
6.6310818012
 30
0.0
 40
0.069268186573449
100
AcDbArc
 50
237.087082609
 51
277.0293693873
  0
POLYLINE
  5
295
330
1F
100
AcDbEntity
  8
0
  6
CONTINUOUS
 62
     7
100
AcDb2dPolyline
 66
     1
 10
0.0
 20
0.0
 30
0.0
  0
VERTEX
  5
64A
330
295
100
AcDbEntity
  8
0
  6
CONTINUOUS
 62
     7
100
AcDbVertex
100
AcDb2dVertex
 10
8.6885726781
 20
7.046706161
 30
0.0
  0
VERTEX
  5
64B
330
295
100
AcDbEntity
  8
0
  6
CONTINUOUS
 62
     7
100
AcDbVertex
100
AcDb2dVertex
 10
8.6932738662
 20
7.0438290863
 30
0.0
  0
VERTEX
  5
64C
330
295
100
AcDbEntity
  8
0
  6
CONTINUOUS
 62
     7
100
AcDbVertex
100
AcDb2dVertex
 10
8.7017928001
 20
7.0376094183
 30
0.0
  0
VERTEX
  5
64D
330
295
100
AcDbEntity
  8
0
  6
CONTINUOUS
 62
     7
100
AcDbVertex
100
AcDb2dVertex
 10
8.7090033529
 20
7.0308608749
 30
0.0
  0
VERTEX
  5
64E
330
295
100
AcDbEntity
  8
0
  6
CONTINUOUS
 62
     7
100
AcDbVertex
100
AcDb2dVertex
 10
8.7148080142
 20
7.0236747187
 30
0.0
  0
VERTEX
  5
64F
330
295
100
AcDbEntity
  8
0
  6
CONTINUOUS
 62
     7
100
AcDbVertex
100
AcDb2dVertex
 10
8.7191282861
 20
7.01614813
 30
0.0
  0
VERTEX
  5
650
330
295
100
AcDbEntity
  8
0
  6
CONTINUOUS
 62
     7
100
AcDbVertex
100
AcDb2dVertex
 10
8.7219057443
 20
7.008382893
 30
0.0
  0
VERTEX
  5
651
330
295
100
AcDbEntity
  8
0
  6
CONTINUOUS
 62
     7
100
AcDbVertex
100
AcDb2dVertex
 10
8.7231028283
 20
7.0004840193
 30
0.0
  0
VERTEX
  5
652
330
295
100
AcDbEntity
  8
0
  6
CONTINUOUS
 62
     7
100
AcDbVertex
100
AcDb2dVertex
 10
8.7227033497
 20
6.9925583276
 30
0.0
  0
VERTEX
  5
653
330
295
100
AcDbEntity
  8
0
  6
CONTINUOUS
 62
     7
100
AcDbVertex
100
AcDb2dVertex
 10
8.7207127108
 20
6.9847129992
 30
0.0
  0
VERTEX
  5
654
330
295
100
AcDbEntity
  8
0
  6
CONTINUOUS
 62
     7
100
AcDbVertex
100
AcDb2dVertex
 10
8.7171578315
 20
6.9770541288
 30
0.0
  0
VERTEX
  5
655
330
295
100
AcDbEntity
  8
0
  6
CONTINUOUS
 62
     7
100
AcDbVertex
100
AcDb2dVertex
 10
8.7120867854
 20
6.9696852894
 30
0.0
  0
VERTEX
  5
656
330
295
100
AcDbEntity
  8
0
  6
CONTINUOUS
 62
     7
100
AcDbVertex
100
AcDb2dVertex
 10
8.7067924708
 20
6.9638781718
 30
0.0
  0
SEQEND
  5
657
330
295
100
AcDbEntity
  8
0
  6
CONTINUOUS
 62
     7
  0
POLYLINE
  5
296
330
1F
100
AcDbEntity
  8
0
  6
CONTINUOUS
 62
     7
100
AcDb2dPolyline
 66
     1
 10
0.0
 20
0.0
 30
0.0
  0
VERTEX
  5
658
330
296
100
AcDbEntity
  8
0
  6
CONTINUOUS
 62
     7
100
AcDbVertex
100
AcDb2dVertex
 10
8.6600332053
 20
6.9381583162
 30
0.0
  0
VERTEX
  5
659
330
296
100
AcDbEntity
  8
0
  6
CONTINUOUS
 62
     7
100
AcDbVertex
100
AcDb2dVertex
 10
8.6549581013
 20
6.936705602
 30
0.0
  0
VERTEX
  5
65A
330
296
100
AcDbEntity
  8
0
  6
CONTINUOUS
 62
     7
100
AcDbVertex
100
AcDb2dVertex
 10
8.6421935141
 20
6.9337781495
 30
0.0
  0
VERTEX
  5
65B
330
296
100
AcDbEntity
  8
0
  6
CONTINUOUS
 62
     7
100
AcDbVertex
100
AcDb2dVertex
 10
8.6289265239
 20
6.9317259613
 30
0.0
  0
VERTEX
  5
65C
330
296
100
AcDbEntity
  8
0
  6
CONTINUOUS
 62
     7
100
AcDbVertex
100
AcDb2dVertex
 10
8.615336544
 20
6.9305767899
 30
0.0
  0
VERTEX
  5
65D
330
296
100
AcDbEntity
  8
0
  6
CONTINUOUS
 62
     7
100
AcDbVertex
100
AcDb2dVertex
 10
8.6016073556
 20
6.9303461758
 30
0.0
  0
VERTEX
  5
65E
330
296
100
AcDbEntity
  8
0
  6
CONTINUOUS
 62
     7
100
AcDbVertex
100
AcDb2dVertex
 10
8.5879246225
 20
6.9310372378
 30
0.0
  0
VERTEX
  5
65F
330
296
100
AcDbEntity
  8
0
  6
CONTINUOUS
 62
     7
100
AcDbVertex
100
AcDb2dVertex
 10
8.5744733801
 20
6.9326406302
 30
0.0
  0
VERTEX
  5
660
330
296
100
AcDbEntity
  8
0
  6
CONTINUOUS
 62
     7
100
AcDbVertex
100
AcDb2dVertex
 10
8.5614355333
 20
6.9351346701
 30
0.0
  0
VERTEX
  5
661
330
296
100
AcDbEntity
  8
0
  6
CONTINUOUS
 62
     7
100
AcDbVertex
100
AcDb2dVertex
 10
8.5489873968
 20
6.9384856298
 30
0.0
  0
VERTEX
  5
662
330
296
100
AcDbEntity
  8
0
  6
CONTINUOUS
 62
     7
100
AcDbVertex
100
AcDb2dVertex
 10
8.5372973102
 20
6.9426481933
 30
0.0
  0
VERTEX
  5
663
330
296
100
AcDbEntity
  8
0
  6
CONTINUOUS
 62
     7
100
AcDbVertex
100
AcDb2dVertex
 10
8.5265233619
 20
6.9475660691
 30
0.0
  0
VERTEX
  5
664
330
296
100
AcDbEntity
  8
0
  6
CONTINUOUS
 62
     7
100
AcDbVertex
100
AcDb2dVertex
 10
8.516811251
 20
6.9531727514
 30
0.0
  0
VERTEX
  5
665
330
296
100
AcDbEntity
  8
0
  6
CONTINUOUS
 62
     7
100
AcDbVertex
100
AcDb2dVertex
 10
8.5082923172
 20
6.9593924194
 30
0.0
  0
VERTEX
  5
666
330
296
100
AcDbEntity
  8
0
  6
CONTINUOUS
 62
     7
100
AcDbVertex
100
AcDb2dVertex
 10
8.5010817644
 20
6.9661409627
 30
0.0
  0
VERTEX
  5
667
330
296
100
AcDbEntity
  8
0
  6
CONTINUOUS
 62
     7
100
AcDbVertex
100
AcDb2dVertex
 10
8.495277103
 20
6.973327119
 30
0.0
  0
VERTEX
  5
668
330
296
100
AcDbEntity
  8
0
  6
CONTINUOUS
 62
     7
100
AcDbVertex
100
AcDb2dVertex
 10
8.4909568311
 20
6.9808537077
 30
0.0
  0
VERTEX
  5
669
330
296
100
AcDbEntity
  8
0
  6
CONTINUOUS
 62
     7
100
AcDbVertex
100
AcDb2dVertex
 10
8.488179373
 20
6.9886189446
 30
0.0
  0
VERTEX
  5
66A
330
296
100
AcDbEntity
  8
0
  6
CONTINUOUS
 62
     7
100
AcDbVertex
100
AcDb2dVertex
 10
8.4869822889
 20
6.9965178183
 30
0.0
  0
VERTEX
  5
66B
330
296
100
AcDbEntity
  8
0
  6
CONTINUOUS
 62
     7
100
AcDbVertex
100
AcDb2dVertex
 10
8.4873817675
 20
7.0044435101
 30
0.0
  0
VERTEX
  5
66C
330
296
100
AcDbEntity
  8
0
  6
CONTINUOUS
 62
     7
100
AcDbVertex
100
AcDb2dVertex
 10
8.4893724064
 20
7.0122888385
 30
0.0
  0
VERTEX
  5
66D
330
296
100
AcDbEntity
  8
0
  6
CONTINUOUS
 62
     7
100
AcDbVertex
100
AcDb2dVertex
 10
8.4929272858
 20
7.0199477089
 30
0.0
  0
VERTEX
  5
66E
330
296
100
AcDbEntity
  8
0
  6
CONTINUOUS
 62
     7
100
AcDbVertex
100
AcDb2dVertex
 10
8.4979983318
 20
7.0273165483
 30
0.0
  0
VERTEX
  5
66F
330
296
100
AcDbEntity
  8
0
  6
CONTINUOUS
 62
     7
100
AcDbVertex
100
AcDb2dVertex
 10
8.5045169674
 20
7.0342957057
 30
0.0
  0
VERTEX
  5
670
330
296
100
AcDbEntity
  8
0
  6
CONTINUOUS
 62
     7
100
AcDbVertex
100
AcDb2dVertex
 10
8.5123950391
 20
7.0407908001
 30
0.0
  0
VERTEX
  5
671
330
296
100
AcDbEntity
  8
0
  6
CONTINUOUS
 62
     7
100
AcDbVertex
100
AcDb2dVertex
 10
8.5215260097
 20
7.0467139963
 30
0.0
  0
SEQEND
  5
672
330
296
100
AcDbEntity
  8
0
  6
CONTINUOUS
 62
     7
  0
POLYLINE
  5
297
330
1F
100
AcDbEntity
  8
0
  6
CONTINUOUS
 62
     7
100
AcDb2dPolyline
 66
     1
 10
0.0
 20
0.0
 30
0.0
  0
VERTEX
  5
673
330
297
100
AcDbEntity
  8
0
  6
CONTINUOUS
 62
     7
100
AcDbVertex
100
AcDb2dVertex
 10
8.5356681453
 20
7.0548807314
 30
0.0
  0
VERTEX
  5
674
330
297
100
AcDbEntity
  8
0
  6
CONTINUOUS
 62
     7
100
AcDbVertex
100
AcDb2dVertex
 10
8.5275202637
 20
7.0495454629
 30
0.0
  0
VERTEX
  5
675
330
297
100
AcDbEntity
  8
0
  6
CONTINUOUS
 62
     7
100
AcDbVertex
100
AcDb2dVertex
 10
8.520594955
 20
7.0436627382
 30
0.0
  0
VERTEX
  5
676
330
297
100
AcDbEntity
  8
0
  6
CONTINUOUS
 62
     7
100
AcDbVertex
100
AcDb2dVertex
 10
8.5150014355
 20
7.0373253313
 30
0.0
  0
VERTEX
  5
677
330
297
100
AcDbEntity
  8
0
  6
CONTINUOUS
 62
     7
100
AcDbVertex
100
AcDb2dVertex
 10
8.5108279183
 20
7.030633187
 30
0.0
  0
VERTEX
  5
678
330
297
100
AcDbEntity
  8
0
  6
CONTINUOUS
 62
     7
100
AcDbVertex
100
AcDb2dVertex
 10
8.5081402222
 20
7.0236918443
 30
0.0
  0
VERTEX
  5
679
330
297
100
AcDbEntity
  8
0
  6
CONTINUOUS
 62
     7
100
AcDbVertex
100
AcDb2dVertex
 10
8.5069807339
 20
7.0166107724
 30
0.0
  0
VERTEX
  5
67A
330
297
100
AcDbEntity
  8
0
  6
CONTINUOUS
 62
     7
100
AcDbVertex
100
AcDb2dVertex
 10
8.5073677391
 20
7.0095016441
 30
0.0
  0
VERTEX
  5
67B
330
297
100
AcDbEntity
  8
0
  6
CONTINUOUS
 62
     7
100
AcDbVertex
100
AcDb2dVertex
 10
8.5092951346
 20
7.0024765744
 30
0.0
  0
VERTEX
  5
67C
330
297
100
AcDbEntity
  8
0
  6
CONTINUOUS
 62
     7
100
AcDbVertex
100
AcDb2dVertex
 10
8.5127325241
 20
6.995646353
 30
0.0
  0
VERTEX
  5
67D
330
297
100
AcDbEntity
  8
0
  6
CONTINUOUS
 62
     7
100
AcDbVertex
100
AcDb2dVertex
 10
8.5176256981
 20
6.9891186966
 30
0.0
  0
VERTEX
  5
67E
330
297
100
AcDbEntity
  8
0
  6
CONTINUOUS
 62
     7
100
AcDbVertex
100
AcDb2dVertex
 10
8.5238974881
 20
6.9829965501
 30
0.0
  0
VERTEX
  5
67F
330
297
100
AcDbEntity
  8
0
  6
CONTINUOUS
 62
     7
100
AcDbVertex
100
AcDb2dVertex
 10
8.5314489844
 20
6.9773764635
 30
0.0
  0
VERTEX
  5
680
330
297
100
AcDbEntity
  8
0
  6
CONTINUOUS
 62
     7
100
AcDbVertex
100
AcDb2dVertex
 10
8.5401610953
 20
6.972347069
 30
0.0
  0
VERTEX
  5
681
330
297
100
AcDbEntity
  8
0
  6
CONTINUOUS
 62
     7
100
AcDbVertex
100
AcDb2dVertex
 10
8.5498964256
 20
6.967987683
 30
0.0
  0
VERTEX
  5
682
330
297
100
AcDbEntity
  8
0
  6
CONTINUOUS
 62
     7
100
AcDbVertex
100
AcDb2dVertex
 10
8.5605014435
 20
6.9643670556
 30
0.0
  0
VERTEX
  5
683
330
297
100
AcDbEntity
  8
0
  6
CONTINUOUS
 62
     7
100
AcDbVertex
100
AcDb2dVertex
 10
8.5718089012
 20
6.9615422864
 30
0.0
  0
VERTEX
  5
684
330
297
100
AcDbEntity
  8
0
  6
CONTINUOUS
 62
     7
100
AcDbVertex
100
AcDb2dVertex
 10
8.5836404737
 20
6.9595579237
 30
0.0
  0
VERTEX
  5
685
330
297
100
AcDbEntity
  8
0
  6
CONTINUOUS
 62
     7
100
AcDbVertex
100
AcDb2dVertex
 10
8.5958095698
 20
6.958445262
 30
0.0
  0
VERTEX
  5
686
330
297
100
AcDbEntity
  8
0
  6
CONTINUOUS
 62
     7
100
AcDbVertex
100
AcDb2dVertex
 10
8.6081242756
 20
6.9582218486
 30
0.0
  0
VERTEX
  5
687
330
297
100
AcDbEntity
  8
0
  6
CONTINUOUS
 62
     7
100
AcDbVertex
100
AcDb2dVertex
 10
8.6203903809
 20
6.958891207
 30
0.0
  0
VERTEX
  5
688
330
297
100
AcDbEntity
  8
0
  6
CONTINUOUS
 62
     7
100
AcDbVertex
100
AcDb2dVertex
 10
8.6324144419
 20
6.9604427809
 30
0.0
  0
VERTEX
  5
689
330
297
100
AcDbEntity
  8
0
  6
CONTINUOUS
 62
     7
100
AcDbVertex
100
AcDb2dVertex
 10
8.644006832
 20
6.9628521011
 30
0.0
  0
VERTEX
  5
68A
330
297
100
AcDbEntity
  8
0
  6
CONTINUOUS
 62
     7
100
AcDbVertex
100
AcDb2dVertex
 10
8.6549847322
 20
6.9660811712
 30
0.0
  0
VERTEX
  5
68B
330
297
100
AcDbEntity
  8
0
  6
CONTINUOUS
 62
     7
100
AcDbVertex
100
AcDb2dVertex
 10
8.6651750144
 20
6.9700790668
 30
0.0
  0
VERTEX
  5
68C
330
297
100
AcDbEntity
  8
0
  6
CONTINUOUS
 62
     7
100
AcDbVertex
100
AcDb2dVertex
 10
8.674416972
 20
6.9747827387
 30
0.0
  0
VERTEX
  5
68D
330
297
100
AcDbEntity
  8
0
  6
CONTINUOUS
 62
     7
100
AcDbVertex
100
AcDb2dVertex
 10
8.6825648535
 20
6.9801180072
 30
0.0
  0
VERTEX
  5
68E
330
297
100
AcDbEntity
  8
0
  6
CONTINUOUS
 62
     7
100
AcDbVertex
100
AcDb2dVertex
 10
8.6894901622
 20
6.986000732
 30
0.0
  0
VERTEX
  5
68F
330
297
100
AcDbEntity
  8
0
  6
CONTINUOUS
 62
     7
100
AcDbVertex
100
AcDb2dVertex
 10
8.6950836817
 20
6.9923381388
 30
0.0
  0
VERTEX
  5
690
330
297
100
AcDbEntity
  8
0
  6
CONTINUOUS
 62
     7
100
AcDbVertex
100
AcDb2dVertex
 10
8.699257199
 20
6.9990302832
 30
0.0
  0
VERTEX
  5
691
330
297
100
AcDbEntity
  8
0
  6
CONTINUOUS
 62
     7
100
AcDbVertex
100
AcDb2dVertex
 10
8.701944895
 20
7.0059716258
 30
0.0
  0
VERTEX
  5
692
330
297
100
AcDbEntity
  8
0
  6
CONTINUOUS
 62
     7
100
AcDbVertex
100
AcDb2dVertex
 10
8.7031043834
 20
7.0130526977
 30
0.0
  0
VERTEX
  5
693
330
297
100
AcDbEntity
  8
0
  6
CONTINUOUS
 62
     7
100
AcDbVertex
100
AcDb2dVertex
 10
8.7027173781
 20
7.0201618261
 30
0.0
  0
VERTEX
  5
694
330
297
100
AcDbEntity
  8
0
  6
CONTINUOUS
 62
     7
100
AcDbVertex
100
AcDb2dVertex
 10
8.7007899827
 20
7.0271868957
 30
0.0
  0
VERTEX
  5
695
330
297
100
AcDbEntity
  8
0
  6
CONTINUOUS
 62
     7
100
AcDbVertex
100
AcDb2dVertex
 10
8.6973525931
 20
7.0340171171
 30
0.0
  0
VERTEX
  5
696
330
297
100
AcDbEntity
  8
0
  6
CONTINUOUS
 62
     7
100
AcDbVertex
100
AcDb2dVertex
 10
8.6924594192
 20
7.0405447735
 30
0.0
  0
VERTEX
  5
697
330
297
100
AcDbEntity
  8
0
  6
CONTINUOUS
 62
     7
100
AcDbVertex
100
AcDb2dVertex
 10
8.6861876291
 20
7.04666692
 30
0.0
  0
VERTEX
  5
698
330
297
100
AcDbEntity
  8
0
  6
CONTINUOUS
 62
     7
100
AcDbVertex
100
AcDb2dVertex
 10
8.6786361329
 20
7.0522870066
 30
0.0
  0
VERTEX
  5
699
330
297
100
AcDbEntity
  8
0
  6
CONTINUOUS
 62
     7
100
AcDbVertex
100
AcDb2dVertex
 10
8.6699240219
 20
7.0573164012
 30
0.0
  0
VERTEX
  5
69A
330
297
100
AcDbEntity
  8
0
  6
CONTINUOUS
 62
     7
100
AcDbVertex
100
AcDb2dVertex
 10
8.6601886916
 20
7.0616757872
 30
0.0
  0
VERTEX
  5
69B
330
297
100
AcDbEntity
  8
0
  6
CONTINUOUS
 62
     7
100
AcDbVertex
100
AcDb2dVertex
 10
8.6495836738
 20
7.0652964145
 30
0.0
  0
VERTEX
  5
69C
330
297
100
AcDbEntity
  8
0
  6
CONTINUOUS
 62
     7
100
AcDbVertex
100
AcDb2dVertex
 10
8.638276216
 20
7.0681211837
 30
0.0
  0
VERTEX
  5
69D
330
297
100
AcDbEntity
  8
0
  6
CONTINUOUS
 62
     7
100
AcDbVertex
100
AcDb2dVertex
 10
8.6264446436
 20
7.0701055464
 30
0.0
  0
VERTEX
  5
69E
330
297
100
AcDbEntity
  8
0
  6
CONTINUOUS
 62
     7
100
AcDbVertex
100
AcDb2dVertex
 10
8.6142755475
 20
7.0712182082
 30
0.0
  0
VERTEX
  5
69F
330
297
100
AcDbEntity
  8
0
  6
CONTINUOUS
 62
     7
100
AcDbVertex
100
AcDb2dVertex
 10
8.6019608416
 20
7.0714416215
 30
0.0
  0
VERTEX
  5
6A0
330
297
100
AcDbEntity
  8
0
  6
CONTINUOUS
 62
     7
100
AcDbVertex
100
AcDb2dVertex
 10
8.5896947363
 20
7.0707722631
 30
0.0
  0
VERTEX
  5
6A1
330
297
100
AcDbEntity
  8
0
  6
CONTINUOUS
 62
     7
100
AcDbVertex
100
AcDb2dVertex
 10
8.5776706753
 20
7.0692206892
 30
0.0
  0
VERTEX
  5
6A2
330
297
100
AcDbEntity
  8
0
  6
CONTINUOUS
 62
     7
100
AcDbVertex
100
AcDb2dVertex
 10
8.5660782853
 20
7.066811369
 30
0.0
  0
VERTEX
  5
6A3
330
297
100
AcDbEntity
  8
0
  6
CONTINUOUS
 62
     7
100
AcDbVertex
100
AcDb2dVertex
 10
8.5551003851
 20
7.0635822989
 30
0.0
  0
VERTEX
  5
6A4
330
297
100
AcDbEntity
  8
0
  6
CONTINUOUS
 62
     7
100
AcDbVertex
100
AcDb2dVertex
 10
8.5449101028
 20
7.0595844033
 30
0.0
  0
VERTEX
  5
6A5
330
297
100
AcDbEntity
  8
0
  6
CONTINUOUS
 62
     7
100
AcDbVertex
100
AcDb2dVertex
 10
8.5356681453
 20
7.0548807314
 30
0.0
  0
SEQEND
  5
6A6
330
297
100
AcDbEntity
  8
0
  6
CONTINUOUS
 62
     7
  0
LINE
  5
298
330
1F
100
AcDbEntity
  8
0
  6
CONTINUOUS
 62
     7
100
AcDbLine
 10
8.6532608606
 20
7.0426675683
 30
0.0
 11
8.5873934352
 21
7.0528561904
 31
0.0
  0
LINE
  5
299
330
1F
100
AcDbEntity
  8
0
  6
CONTINUOUS
 62
     7
100
AcDbLine
 10
8.5873934352
 20
7.0528561904
 30
0.0
 11
8.5391751331
 21
7.0250203572
 31
0.0
  0
LINE
  5
29A
330
1F
100
AcDbEntity
  8
0
  6
CONTINUOUS
 62
     7
100
AcDbLine
 10
8.5391751331
 20
7.0250203572
 30
0.0
 11
8.5568242566
 21
6.9869959018
 31
0.0
  0
LINE
  5
29B
330
1F
100
AcDbEntity
  8
0
  6
CONTINUOUS
 62
     7
100
AcDbLine
 10
8.5568242566
 20
6.9869959018
 30
0.0
 11
8.6226916821
 21
6.9768072797
 31
0.0
  0
LINE
  5
29C
330
1F
100
AcDbEntity
  8
0
  6
CONTINUOUS
 62
     7
100
AcDbLine
 10
8.6226916821
 20
6.9768072797
 30
0.0
 11
8.6709099841
 21
7.004643113
 31
0.0
  0
LINE
  5
29D
330
1F
100
AcDbEntity
  8
0
  6
CONTINUOUS
 62
     7
100
AcDbLine
 10
8.6709099841
 20
7.004643113
 30
0.0
 11
8.6532608606
 21
7.0426675683
 31
0.0
  0
LINE
  5
29E
330
1F
100
AcDbEntity
  8
0
  6
CONTINUOUS
 62
     7
100
AcDbLine
 10
8.6532608606
 20
6.9944544909
 30
0.0
 11
8.6532608606
 21
7.0426675683
 31
0.0
  0
LINE
  5
29F
330
1F
100
AcDbEntity
  8
0
  6
CONTINUOUS
 62
     7
100
AcDbLine
 10
8.5873934352
 20
6.9822673458
 30
0.0
 11
8.5873934352
 21
7.0528561904
 31
0.0
  0
POLYLINE
  5
2A0
330
1F
100
AcDbEntity
  8
0
  6
CONTINUOUS
 62
     7
100
AcDb2dPolyline
 66
     1
 10
0.0
 20
0.0
 30
0.0
  0
VERTEX
  5
6A7
330
2A0
100
AcDbEntity
  8
0
  6
CONTINUOUS
 62
     7
100
AcDbVertex
100
AcDb2dVertex
 10
7.8395952854
 20
7.4666775016
 30
0.0
  0
VERTEX
  5
6A8
330
2A0
100
AcDbEntity
  8
0
  6
CONTINUOUS
 62
     7
100
AcDbVertex
100
AcDb2dVertex
 10
7.8435146763
 20
7.4711012951
 30
0.0
  0
VERTEX
  5
6A9
330
2A0
100
AcDbEntity
  8
0
  6
CONTINUOUS
 62
     7
100
AcDbVertex
100
AcDb2dVertex
 10
7.8485857223
 20
7.4784701344
 30
0.0
  0
VERTEX
  5
6AA
330
2A0
100
AcDbEntity
  8
0
  6
CONTINUOUS
 62
     7
100
AcDbVertex
100
AcDb2dVertex
 10
7.8521406016
 20
7.4861290049
 30
0.0
  0
VERTEX
  5
6AB
330
2A0
100
AcDbEntity
  8
0
  6
CONTINUOUS
 62
     7
100
AcDbVertex
100
AcDb2dVertex
 10
7.8541312406
 20
7.4939743333
 30
0.0
  0
VERTEX
  5
6AC
330
2A0
100
AcDbEntity
  8
0
  6
CONTINUOUS
 62
     7
100
AcDbVertex
100
AcDb2dVertex
 10
7.8545307191
 20
7.501900025
 30
0.0
  0
VERTEX
  5
6AD
330
2A0
100
AcDbEntity
  8
0
  6
CONTINUOUS
 62
     7
100
AcDbVertex
100
AcDb2dVertex
 10
7.8533336351
 20
7.5097988987
 30
0.0
  0
VERTEX
  5
6AE
330
2A0
100
AcDbEntity
  8
0
  6
CONTINUOUS
 62
     7
100
AcDbVertex
100
AcDb2dVertex
 10
7.850556177
 20
7.5175641357
 30
0.0
  0
VERTEX
  5
6AF
330
2A0
100
AcDbEntity
  8
0
  6
CONTINUOUS
 62
     7
100
AcDbVertex
100
AcDb2dVertex
 10
7.8462359051
 20
7.5250907244
 30
0.0
  0
VERTEX
  5
6B0
330
2A0
100
AcDbEntity
  8
0
  6
CONTINUOUS
 62
     7
100
AcDbVertex
100
AcDb2dVertex
 10
7.8404312437
 20
7.5322768806
 30
0.0
  0
VERTEX
  5
6B1
330
2A0
100
AcDbEntity
  8
0
  6
CONTINUOUS
 62
     7
100
AcDbVertex
100
AcDb2dVertex
 10
7.8332206909
 20
7.539025424
 30
0.0
  0
VERTEX
  5
6B2
330
2A0
100
AcDbEntity
  8
0
  6
CONTINUOUS
 62
     7
100
AcDbVertex
100
AcDb2dVertex
 10
7.8247017571
 20
7.5452450919
 30
0.0
  0
VERTEX
  5
6B3
330
2A0
100
AcDbEntity
  8
0
  6
CONTINUOUS
 62
     7
100
AcDbVertex
100
AcDb2dVertex
 10
7.8200005689
 20
7.5481221666
 30
0.0
  0
SEQEND
  5
6B4
330
2A0
100
AcDbEntity
  8
0
  6
CONTINUOUS
 62
     7
  0
POLYLINE
  5
2A1
330
1F
100
AcDbEntity
  8
0
  6
CONTINUOUS
 62
     7
100
AcDb2dPolyline
 66
     1
 10
0.0
 20
0.0
 30
0.0
  0
VERTEX
  5
6B5
330
2A1
100
AcDbEntity
  8
0
  6
CONTINUOUS
 62
     7
100
AcDbVertex
100
AcDb2dVertex
 10
7.65294033
 20
7.5481221666
 30
0.0
  0
VERTEX
  5
6B6
330
2A1
100
AcDbEntity
  8
0
  6
CONTINUOUS
 62
     7
100
AcDbVertex
100
AcDb2dVertex
 10
7.64382293
 20
7.5422068057
 30
0.0
  0
VERTEX
  5
6B7
330
2A1
100
AcDbEntity
  8
0
  6
CONTINUOUS
 62
     7
100
AcDbVertex
100
AcDb2dVertex
 10
7.6359448582
 20
7.5357117114
 30
0.0
  0
VERTEX
  5
6B8
330
2A1
100
AcDbEntity
  8
0
  6
CONTINUOUS
 62
     7
100
AcDbVertex
100
AcDb2dVertex
 10
7.6294262226
 20
7.528732554
 30
0.0
  0
VERTEX
  5
6B9
330
2A1
100
AcDbEntity
  8
0
  6
CONTINUOUS
 62
     7
100
AcDbVertex
100
AcDb2dVertex
 10
7.6243551766
 20
7.5213637146
 30
0.0
  0
VERTEX
  5
6BA
330
2A1
100
AcDbEntity
  8
0
  6
CONTINUOUS
 62
     7
100
AcDbVertex
100
AcDb2dVertex
 10
7.6208002973
 20
7.5137048442
 30
0.0
  0
VERTEX
  5
6BB
330
2A1
100
AcDbEntity
  8
0
  6
CONTINUOUS
 62
     7
100
AcDbVertex
100
AcDb2dVertex
 10
7.6188096583
 20
7.5058595158
 30
0.0
  0
VERTEX
  5
6BC
330
2A1
100
AcDbEntity
  8
0
  6
CONTINUOUS
 62
     7
100
AcDbVertex
100
AcDb2dVertex
 10
7.6184101798
 20
7.497933824
 30
0.0
  0
VERTEX
  5
6BD
330
2A1
100
AcDbEntity
  8
0
  6
CONTINUOUS
 62
     7
100
AcDbVertex
100
AcDb2dVertex
 10
7.6196072638
 20
7.4900349503
 30
0.0
  0
VERTEX
  5
6BE
330
2A1
100
AcDbEntity
  8
0
  6
CONTINUOUS
 62
     7
100
AcDbVertex
100
AcDb2dVertex
 10
7.6223847219
 20
7.4822697134
 30
0.0
  0
VERTEX
  5
6BF
330
2A1
100
AcDbEntity
  8
0
  6
CONTINUOUS
 62
     7
100
AcDbVertex
100
AcDb2dVertex
 10
7.6267049938
 20
7.4747431247
 30
0.0
  0
VERTEX
  5
6C0
330
2A1
100
AcDbEntity
  8
0
  6
CONTINUOUS
 62
     7
100
AcDbVertex
100
AcDb2dVertex
 10
7.6325096552
 20
7.4675569684
 30
0.0
  0
VERTEX
  5
6C1
330
2A1
100
AcDbEntity
  8
0
  6
CONTINUOUS
 62
     7
100
AcDbVertex
100
AcDb2dVertex
 10
7.639720208
 20
7.4608084251
 30
0.0
  0
VERTEX
  5
6C2
330
2A1
100
AcDbEntity
  8
0
  6
CONTINUOUS
 62
     7
100
AcDbVertex
100
AcDb2dVertex
 10
7.6482391418
 20
7.4545887571
 30
0.0
  0
VERTEX
  5
6C3
330
2A1
100
AcDbEntity
  8
0
  6
CONTINUOUS
 62
     7
100
AcDbVertex
100
AcDb2dVertex
 10
7.6579512527
 20
7.4489820748
 30
0.0
  0
VERTEX
  5
6C4
330
2A1
100
AcDbEntity
  8
0
  6
CONTINUOUS
 62
     7
100
AcDbVertex
100
AcDb2dVertex
 10
7.6687252011
 20
7.444064199
 30
0.0
  0
VERTEX
  5
6C5
330
2A1
100
AcDbEntity
  8
0
  6
CONTINUOUS
 62
     7
100
AcDbVertex
100
AcDb2dVertex
 10
7.6804152877
 20
7.4399016355
 30
0.0
  0
VERTEX
  5
6C6
330
2A1
100
AcDbEntity
  8
0
  6
CONTINUOUS
 62
     7
100
AcDbVertex
100
AcDb2dVertex
 10
7.6928634242
 20
7.4365506758
 30
0.0
  0
VERTEX
  5
6C7
330
2A1
100
AcDbEntity
  8
0
  6
CONTINUOUS
 62
     7
100
AcDbVertex
100
AcDb2dVertex
 10
7.7059012709
 20
7.4340566359
 30
0.0
  0
VERTEX
  5
6C8
330
2A1
100
AcDbEntity
  8
0
  6
CONTINUOUS
 62
     7
100
AcDbVertex
100
AcDb2dVertex
 10
7.7193525133
 20
7.4324532434
 30
0.0
  0
VERTEX
  5
6C9
330
2A1
100
AcDbEntity
  8
0
  6
CONTINUOUS
 62
     7
100
AcDbVertex
100
AcDb2dVertex
 10
7.7330352464
 20
7.4317621815
 30
0.0
  0
VERTEX
  5
6CA
330
2A1
100
AcDbEntity
  8
0
  6
CONTINUOUS
 62
     7
100
AcDbVertex
100
AcDb2dVertex
 10
7.7467644348
 20
7.4319927956
 30
0.0
  0
VERTEX
  5
6CB
330
2A1
100
AcDbEntity
  8
0
  6
CONTINUOUS
 62
     7
100
AcDbVertex
100
AcDb2dVertex
 10
7.7603544147
 20
7.433141967
 30
0.0
  0
VERTEX
  5
6CC
330
2A1
100
AcDbEntity
  8
0
  6
CONTINUOUS
 62
     7
100
AcDbVertex
100
AcDb2dVertex
 10
7.7736214049
 20
7.4351941552
 30
0.0
  0
VERTEX
  5
6CD
330
2A1
100
AcDbEntity
  8
0
  6
CONTINUOUS
 62
     7
100
AcDbVertex
100
AcDb2dVertex
 10
7.7863859922
 20
7.4381216077
 30
0.0
  0
VERTEX
  5
6CE
330
2A1
100
AcDbEntity
  8
0
  6
CONTINUOUS
 62
     7
100
AcDbVertex
100
AcDb2dVertex
 10
7.7907192026
 20
7.4393509398
 30
0.0
  0
SEQEND
  5
6CF
330
2A1
100
AcDbEntity
  8
0
  6
CONTINUOUS
 62
     7
  0
POLYLINE
  5
2A2
330
1F
100
AcDbEntity
  8
0
  6
CONTINUOUS
 62
     7
100
AcDb2dPolyline
 66
     1
 10
0.0
 20
0.0
 30
0.0
  0
VERTEX
  5
6D0
330
2A2
100
AcDbEntity
  8
0
  6
CONTINUOUS
 62
     7
100
AcDbVertex
100
AcDb2dVertex
 10
7.8058448628
 20
7.4761987444
 30
0.0
  0
VERTEX
  5
6D1
330
2A2
100
AcDbEntity
  8
0
  6
CONTINUOUS
 62
     7
100
AcDbVertex
100
AcDb2dVertex
 10
7.7966029053
 20
7.4714950725
 30
0.0
  0
VERTEX
  5
6D2
330
2A2
100
AcDbEntity
  8
0
  6
CONTINUOUS
 62
     7
100
AcDbVertex
100
AcDb2dVertex
 10
7.786412623
 20
7.4674971769
 30
0.0
  0
VERTEX
  5
6D3
330
2A2
100
AcDbEntity
  8
0
  6
CONTINUOUS
 62
     7
100
AcDbVertex
100
AcDb2dVertex
 10
7.7754347228
 20
7.4642681068
 30
0.0
  0
VERTEX
  5
6D4
330
2A2
100
AcDbEntity
  8
0
  6
CONTINUOUS
 62
     7
100
AcDbVertex
100
AcDb2dVertex
 10
7.7638423328
 20
7.4618587866
 30
0.0
  0
VERTEX
  5
6D5
330
2A2
100
AcDbEntity
  8
0
  6
CONTINUOUS
 62
     7
100
AcDbVertex
100
AcDb2dVertex
 10
7.7518182718
 20
7.4603072127
 30
0.0
  0
VERTEX
  5
6D6
330
2A2
100
AcDbEntity
  8
0
  6
CONTINUOUS
 62
     7
100
AcDbVertex
100
AcDb2dVertex
 10
7.7395521664
 20
7.4596378543
 30
0.0
  0
VERTEX
  5
6D7
330
2A2
100
AcDbEntity
  8
0
  6
CONTINUOUS
 62
     7
100
AcDbVertex
100
AcDb2dVertex
 10
7.7272374606
 20
7.4598612677
 30
0.0
  0
VERTEX
  5
6D8
330
2A2
100
AcDbEntity
  8
0
  6
CONTINUOUS
 62
     7
100
AcDbVertex
100
AcDb2dVertex
 10
7.7150683645
 20
7.4609739294
 30
0.0
  0
VERTEX
  5
6D9
330
2A2
100
AcDbEntity
  8
0
  6
CONTINUOUS
 62
     7
100
AcDbVertex
100
AcDb2dVertex
 10
7.7032367921
 20
7.4629582921
 30
0.0
  0
VERTEX
  5
6DA
330
2A2
100
AcDbEntity
  8
0
  6
CONTINUOUS
 62
     7
100
AcDbVertex
100
AcDb2dVertex
 10
7.6919293343
 20
7.4657830613
 30
0.0
  0
VERTEX
  5
6DB
330
2A2
100
AcDbEntity
  8
0
  6
CONTINUOUS
 62
     7
100
AcDbVertex
100
AcDb2dVertex
 10
7.6813243165
 20
7.4694036886
 30
0.0
  0
VERTEX
  5
6DC
330
2A2
100
AcDbEntity
  8
0
  6
CONTINUOUS
 62
     7
100
AcDbVertex
100
AcDb2dVertex
 10
7.6715889861
 20
7.4737630747
 30
0.0
  0
VERTEX
  5
6DD
330
2A2
100
AcDbEntity
  8
0
  6
CONTINUOUS
 62
     7
100
AcDbVertex
100
AcDb2dVertex
 10
7.6628768752
 20
7.4787924692
 30
0.0
  0
VERTEX
  5
6DE
330
2A2
100
AcDbEntity
  8
0
  6
CONTINUOUS
 62
     7
100
AcDbVertex
100
AcDb2dVertex
 10
7.6553253789
 20
7.4844125558
 30
0.0
  0
VERTEX
  5
6DF
330
2A2
100
AcDbEntity
  8
0
  6
CONTINUOUS
 62
     7
100
AcDbVertex
100
AcDb2dVertex
 10
7.6490535889
 20
7.4905347023
 30
0.0
  0
VERTEX
  5
6E0
330
2A2
100
AcDbEntity
  8
0
  6
CONTINUOUS
 62
     7
100
AcDbVertex
100
AcDb2dVertex
 10
7.644160415
 20
7.4970623587
 30
0.0
  0
VERTEX
  5
6E1
330
2A2
100
AcDbEntity
  8
0
  6
CONTINUOUS
 62
     7
100
AcDbVertex
100
AcDb2dVertex
 10
7.6407230254
 20
7.5038925801
 30
0.0
  0
VERTEX
  5
6E2
330
2A2
100
AcDbEntity
  8
0
  6
CONTINUOUS
 62
     7
100
AcDbVertex
100
AcDb2dVertex
 10
7.6387956299
 20
7.5109176497
 30
0.0
  0
VERTEX
  5
6E3
330
2A2
100
AcDbEntity
  8
0
  6
CONTINUOUS
 62
     7
100
AcDbVertex
100
AcDb2dVertex
 10
7.6384086247
 20
7.5180267781
 30
0.0
  0
VERTEX
  5
6E4
330
2A2
100
AcDbEntity
  8
0
  6
CONTINUOUS
 62
     7
100
AcDbVertex
100
AcDb2dVertex
 10
7.639568113
 20
7.52510785
 30
0.0
  0
VERTEX
  5
6E5
330
2A2
100
AcDbEntity
  8
0
  6
CONTINUOUS
 62
     7
100
AcDbVertex
100
AcDb2dVertex
 10
7.6422558091
 20
7.5320491926
 30
0.0
  0
VERTEX
  5
6E6
330
2A2
100
AcDbEntity
  8
0
  6
CONTINUOUS
 62
     7
100
AcDbVertex
100
AcDb2dVertex
 10
7.6464293263
 20
7.538741337
 30
0.0
  0
VERTEX
  5
6E7
330
2A2
100
AcDbEntity
  8
0
  6
CONTINUOUS
 62
     7
100
AcDbVertex
100
AcDb2dVertex
 10
7.6520228459
 20
7.5450787439
 30
0.0
  0
VERTEX
  5
6E8
330
2A2
100
AcDbEntity
  8
0
  6
CONTINUOUS
 62
     7
100
AcDbVertex
100
AcDb2dVertex
 10
7.6589481545
 20
7.5509614686
 30
0.0
  0
VERTEX
  5
6E9
330
2A2
100
AcDbEntity
  8
0
  6
CONTINUOUS
 62
     7
100
AcDbVertex
100
AcDb2dVertex
 10
7.6670960361
 20
7.5562967371
 30
0.0
  0
VERTEX
  5
6EA
330
2A2
100
AcDbEntity
  8
0
  6
CONTINUOUS
 62
     7
100
AcDbVertex
100
AcDb2dVertex
 10
7.6763379936
 20
7.561000409
 30
0.0
  0
VERTEX
  5
6EB
330
2A2
100
AcDbEntity
  8
0
  6
CONTINUOUS
 62
     7
100
AcDbVertex
100
AcDb2dVertex
 10
7.6865282759
 20
7.5649983046
 30
0.0
  0
VERTEX
  5
6EC
330
2A2
100
AcDbEntity
  8
0
  6
CONTINUOUS
 62
     7
100
AcDbVertex
100
AcDb2dVertex
 10
7.6975061761
 20
7.5682273747
 30
0.0
  0
VERTEX
  5
6ED
330
2A2
100
AcDbEntity
  8
0
  6
CONTINUOUS
 62
     7
100
AcDbVertex
100
AcDb2dVertex
 10
7.7090985661
 20
7.5706366949
 30
0.0
  0
VERTEX
  5
6EE
330
2A2
100
AcDbEntity
  8
0
  6
CONTINUOUS
 62
     7
100
AcDbVertex
100
AcDb2dVertex
 10
7.7211226271
 20
7.5721882688
 30
0.0
  0
VERTEX
  5
6EF
330
2A2
100
AcDbEntity
  8
0
  6
CONTINUOUS
 62
     7
100
AcDbVertex
100
AcDb2dVertex
 10
7.7333887325
 20
7.5728576272
 30
0.0
  0
VERTEX
  5
6F0
330
2A2
100
AcDbEntity
  8
0
  6
CONTINUOUS
 62
     7
100
AcDbVertex
100
AcDb2dVertex
 10
7.7457034383
 20
7.5726342138
 30
0.0
  0
VERTEX
  5
6F1
330
2A2
100
AcDbEntity
  8
0
  6
CONTINUOUS
 62
     7
100
AcDbVertex
100
AcDb2dVertex
 10
7.7578725344
 20
7.5715215521
 30
0.0
  0
VERTEX
  5
6F2
330
2A2
100
AcDbEntity
  8
0
  6
CONTINUOUS
 62
     7
100
AcDbVertex
100
AcDb2dVertex
 10
7.7697041068
 20
7.5695371894
 30
0.0
  0
VERTEX
  5
6F3
330
2A2
100
AcDbEntity
  8
0
  6
CONTINUOUS
 62
     7
100
AcDbVertex
100
AcDb2dVertex
 10
7.7810115646
 20
7.5667124202
 30
0.0
  0
VERTEX
  5
6F4
330
2A2
100
AcDbEntity
  8
0
  6
CONTINUOUS
 62
     7
100
AcDbVertex
100
AcDb2dVertex
 10
7.7916165824
 20
7.5630917929
 30
0.0
  0
VERTEX
  5
6F5
330
2A2
100
AcDbEntity
  8
0
  6
CONTINUOUS
 62
     7
100
AcDbVertex
100
AcDb2dVertex
 10
7.8013519128
 20
7.5587324068
 30
0.0
  0
VERTEX
  5
6F6
330
2A2
100
AcDbEntity
  8
0
  6
CONTINUOUS
 62
     7
100
AcDbVertex
100
AcDb2dVertex
 10
7.8100640237
 20
7.5537030123
 30
0.0
  0
VERTEX
  5
6F7
330
2A2
100
AcDbEntity
  8
0
  6
CONTINUOUS
 62
     7
100
AcDbVertex
100
AcDb2dVertex
 10
7.81761552
 20
7.5480829257
 30
0.0
  0
VERTEX
  5
6F8
330
2A2
100
AcDbEntity
  8
0
  6
CONTINUOUS
 62
     7
100
AcDbVertex
100
AcDb2dVertex
 10
7.82388731
 20
7.5419607792
 30
0.0
  0
VERTEX
  5
6F9
330
2A2
100
AcDbEntity
  8
0
  6
CONTINUOUS
 62
     7
100
AcDbVertex
100
AcDb2dVertex
 10
7.8287804839
 20
7.5354331228
 30
0.0
  0
VERTEX
  5
6FA
330
2A2
100
AcDbEntity
  8
0
  6
CONTINUOUS
 62
     7
100
AcDbVertex
100
AcDb2dVertex
 10
7.8322178735
 20
7.5286029014
 30
0.0
  0
VERTEX
  5
6FB
330
2A2
100
AcDbEntity
  8
0
  6
CONTINUOUS
 62
     7
100
AcDbVertex
100
AcDb2dVertex
 10
7.834145269
 20
7.5215778318
 30
0.0
  0
VERTEX
  5
6FC
330
2A2
100
AcDbEntity
  8
0
  6
CONTINUOUS
 62
     7
100
AcDbVertex
100
AcDb2dVertex
 10
7.8345322742
 20
7.5144687034
 30
0.0
  0
VERTEX
  5
6FD
330
2A2
100
AcDbEntity
  8
0
  6
CONTINUOUS
 62
     7
100
AcDbVertex
100
AcDb2dVertex
 10
7.8333727859
 20
7.5073876315
 30
0.0
  0
VERTEX
  5
6FE
330
2A2
100
AcDbEntity
  8
0
  6
CONTINUOUS
 62
     7
100
AcDbVertex
100
AcDb2dVertex
 10
7.8306850898
 20
7.5004462889
 30
0.0
  0
VERTEX
  5
6FF
330
2A2
100
AcDbEntity
  8
0
  6
CONTINUOUS
 62
     7
100
AcDbVertex
100
AcDb2dVertex
 10
7.8265115726
 20
7.4937541445
 30
0.0
  0
VERTEX
  5
700
330
2A2
100
AcDbEntity
  8
0
  6
CONTINUOUS
 62
     7
100
AcDbVertex
100
AcDb2dVertex
 10
7.820918053
 20
7.4874167377
 30
0.0
  0
VERTEX
  5
701
330
2A2
100
AcDbEntity
  8
0
  6
CONTINUOUS
 62
     7
100
AcDbVertex
100
AcDb2dVertex
 10
7.8139927444
 20
7.4815340129
 30
0.0
  0
VERTEX
  5
702
330
2A2
100
AcDbEntity
  8
0
  6
CONTINUOUS
 62
     7
100
AcDbVertex
100
AcDb2dVertex
 10
7.8058448628
 20
7.4761987444
 30
0.0
  0
SEQEND
  5
703
330
2A2
100
AcDbEntity
  8
0
  6
CONTINUOUS
 62
     7
  0
LINE
  5
2A3
330
1F
100
AcDbEntity
  8
0
  6
CONTINUOUS
 62
     7
100
AcDbLine
 10
7.670603024
 20
7.5264363629
 30
0.0
 11
7.718821326
 21
7.5542721961
 31
0.0
  0
LINE
  5
2A4
330
1F
100
AcDbEntity
  8
0
  6
CONTINUOUS
 62
     7
100
AcDbLine
 10
7.6882521474
 20
7.4884119075
 30
0.0
 11
7.670603024
 21
7.5264363629
 31
0.0
  0
LINE
  5
2A5
330
1F
100
AcDbEntity
  8
0
  6
CONTINUOUS
 62
     7
100
AcDbLine
 10
7.7541195729
 20
7.4782232854
 30
0.0
 11
7.6882521474
 21
7.4884119075
 31
0.0
  0
LINE
  5
2A6
330
1F
100
AcDbEntity
  8
0
  6
CONTINUOUS
 62
     7
100
AcDbLine
 10
7.8023378749
 20
7.5060591186
 30
0.0
 11
7.7541195729
 21
7.4782232854
 31
0.0
  0
LINE
  5
2A7
330
1F
100
AcDbEntity
  8
0
  6
CONTINUOUS
 62
     7
100
AcDbLine
 10
7.7846887515
 20
7.544083574
 30
0.0
 11
7.8023378749
 21
7.5060591186
 31
0.0
  0
LINE
  5
2A8
330
1F
100
AcDbEntity
  8
0
  6
CONTINUOUS
 62
     7
100
AcDbLine
 10
7.718821326
 20
7.5542721961
 30
0.0
 11
7.7846887515
 21
7.544083574
 31
0.0
  0
LINE
  5
2A9
330
1F
100
AcDbEntity
  8
0
  6
CONTINUOUS
 62
     7
100
AcDbLine
 10
7.7846887515
 20
7.4958704965
 30
0.0
 11
7.7846887515
 21
7.544083574
 31
0.0
  0
LINE
  5
2AA
330
1F
100
AcDbEntity
  8
0
  6
CONTINUOUS
 62
     7
100
AcDbLine
 10
7.718821326
 20
7.4836833515
 30
0.0
 11
7.718821326
 21
7.5542721961
 31
0.0
  0
ENDSEC
  0
SECTION
  2
OBJECTS
  0
DICTIONARY
  5
C
330
0
100
AcDbDictionary
  3
ACAD_GROUP
350
D
  3
ACAD_LAYOUT
350
1A
  3
ACAD_MLEADERSTYLE
350
2AD
  3
ACAD_MLINESTYLE
350
17
  3
ACAD_PLOTSETTINGS
350
19
  3
ACAD_SCALELIST
350
6F
  3
ACAD_VISUALSTYLE
350
2A
  3
ACDBVARIABLEDICTIONARY
350
2AB
1001
ACAD
1000
TREAT_AS_HARD
1070
     0
  0
DICTIONARY
  5
D
102
{ACAD_REACTORS
330
C
102
}
330
C
100
AcDbDictionary
1001
ACAD
1000
TREAT_AS_HARD
1070
     0
  0
DICTIONARY
  5
1A
102
{ACAD_REACTORS
330
C
102
}
330
C
100
AcDbDictionary
1001
ACAD
1000
TREAT_AS_HARD
1070
     0
  0
DICTIONARY
  5
2AD
102
{ACAD_REACTORS
330
C
102
}
330
C
100
AcDbDictionary
1001
ACAD
1000
TREAT_AS_HARD
1070
     0
  0
DICTIONARY
  5
17
102
{ACAD_REACTORS
330
C
102
}
330
C
100
AcDbDictionary
  3
STANDARD
350
18
1001
ACAD
1000
TREAT_AS_HARD
1070
     0
  0
DICTIONARY
  5
19
102
{ACAD_REACTORS
330
C
102
}
330
C
100
AcDbDictionary
1001
ACAD
1000
TREAT_AS_HARD
1070
     0
  0
DICTIONARY
  5
6F
102
{ACAD_REACTORS
330
C
102
}
330
C
100
AcDbDictionary
  3
A0
350
70
  3
A1
350
71
  3
A2
350
72
  3
A3
350
73
  3
A4
350
74
  3
A5
350
75
  3
A6
350
76
  3
A7
350
77
  3
A8
350
78
  3
A9
350
79
  3
B0
350
7A
  3
B1
350
7B
  3
B2
350
7C
  3
B3
350
7D
  3
B4
350
7E
  3
B5
350
7F
  3
B6
350
80
  3
B7
350
81
  3
B8
350
82
  3
B9
350
83
  3
C0
350
84
  3
C1
350
85
  3
C2
350
86
  3
C3
350
87
  3
C4
350
88
  3
C5
350
89
  3
C6
350
8A
  3
C7
350
8B
  3
C8
350
8C
  3
C9
350
8D
  3
D0
350
8E
  3
D1
350
8F
  3
D2
350
90
1001
ACAD
1000
TREAT_AS_HARD
1070
     0
  0
DICTIONARY
  5
2A
102
{ACAD_REACTORS
330
C
102
}
330
C
100
AcDbDictionary
  3
2DWIREFRAME
350
2F
  3
3D_HIDDEN
350
31
  3
3DWIREFRAME
350
30
  3
BASIC
350
32
  3
BRIGHTEN
350
36
  3
COLORCHANGE
350
3A
  3
CONCEPTUAL
350
34
  3
DIM
350
35
  3
FACEPATTERN
350
39
  3
FLAT
350
2B
  3
FLATWITHEDGES
350
2C
  3
GOURAUD
350
2D
  3
GOURAUDWITHEDGES
350
2E
  3
LINEPATTERN
350
38
  3
REALISTIC
350
33
  3
THICKEN
350
37
1001
ACAD
1000
TREAT_AS_HARD
1070
     0
  0
DICTIONARY
  5
2AB
102
{ACAD_REACTORS
330
C
102
}
330
C
100
AcDbDictionary
  3
CANNOSCALE
350
2AE
  3
DIMASSOC
350
2AF
  3
HIDETEXT
350
2B0
1001
ACAD
1000
TREAT_AS_HARD
1070
     0
  0
MLINESTYLE
  5
18
102
{ACAD_REACTORS
330
17
102
}
330
17
100
AcDbMlineStyle
  2
Standard
 70
     0
  3

 62
   256
 51
90.0
 52
90.0
 71
     2
 49
0.5
 62
   256
  6
BYLAYER
 49
-0.5
 62
   256
  6
BYLAYER
  0
ACAD_PROXY_OBJECT
  5
70
102
{ACAD_REACTORS
330
6F
102
}
330
6F
100
AcDbZombieObject
 90
      499
 91
      502
 93
       41
310
903313A31580
  0
ACAD_PROXY_OBJECT
  5
71
102
{ACAD_REACTORS
330
6F
102
}
330
6F
100
AcDbZombieObject
 90
      499
 91
      502
 93
      105
310
903313A324000000000000004000
  0
ACAD_PROXY_OBJECT
  5
72
102
{ACAD_REACTORS
330
6F
102
}
330
6F
100
AcDbZombieObject
 90
      499
 91
      502
 93
      105
310
903313A344000000000000104000
  0
ACAD_PROXY_OBJECT
  5
73
102
{ACAD_REACTORS
330
6F
102
}
330
6F
100
AcDbZombieObject
 90
      499
 91
      502
 93
      105
310
903313A354000000000000144000
  0
ACAD_PROXY_OBJECT
  5
74
102
{ACAD_REACTORS
330
6F
102
}
330
6F
100
AcDbZombieObject
 90
      499
 91
      502
 93
      105
310
903313A384000000000000204000
  0
ACAD_PROXY_OBJECT
  5
75
102
{ACAD_REACTORS
330
6F
102
}
330
6F
100
AcDbZombieObject
 90
      499
 91
      502
 93
      113
310
904313A31304000000000000244000
  0
ACAD_PROXY_OBJECT
  5
76
102
{ACAD_REACTORS
330
6F
102
}
330
6F
100
AcDbZombieObject
 90
      499
 91
      502
 93
      113
310
904313A31364000000000000304000
  0
ACAD_PROXY_OBJECT
  5
77
102
{ACAD_REACTORS
330
6F
102
}
330
6F
100
AcDbZombieObject
 90
      499
 91
      502
 93
      113
310
904313A32304000000000000344000
  0
ACAD_PROXY_OBJECT
  5
78
102
{ACAD_REACTORS
330
6F
102
}
330
6F
100
AcDbZombieObject
 90
      499
 91
      502
 93
      113
310
904313A333040000000000003E4000
  0
ACAD_PROXY_OBJECT
  5
79
102
{ACAD_REACTORS
330
6F
102
}
330
6F
100
AcDbZombieObject
 90
      499
 91
      502
 93
      113
310
904313A34304000000000000444000
  0
ACAD_PROXY_OBJECT
  5
7A
102
{ACAD_REACTORS
330
6F
102
}
330
6F
100
AcDbZombieObject
 90
      499
 91
      502
 93
      113
310
904313A35304000000000000494000
  0
ACAD_PROXY_OBJECT
  5
7B
102
{ACAD_REACTORS
330
6F
102
}
330
6F
100
AcDbZombieObject
 90
      499
 91
      502
 93
      121
310
905313A3130304000000000000594000
  0
ACAD_PROXY_OBJECT
  5
7C
102
{ACAD_REACTORS
330
6F
102
}
330
6F
100
AcDbZombieObject
 90
      499
 91
      502
 93
      105
310
903323A310000000000000010100
  0
ACAD_PROXY_OBJECT
  5
7D
102
{ACAD_REACTORS
330
6F
102
}
330
6F
100
AcDbZombieObject
 90
      499
 91
      502
 93
      105
310
903343A310000000000000410100
  0
ACAD_PROXY_OBJECT
  5
7E
102
{ACAD_REACTORS
330
6F
102
}
330
6F
100
AcDbZombieObject
 90
      499
 91
      502
 93
      105
310
903383A310000000000000810100
  0
ACAD_PROXY_OBJECT
  5
7F
102
{ACAD_REACTORS
330
6F
102
}
330
6F
100
AcDbZombieObject
 90
      499
 91
      502
 93
      113
310
90431303A310000000000000910100
  0
ACAD_PROXY_OBJECT
  5
80
102
{ACAD_REACTORS
330
6F
102
}
330
6F
100
AcDbZombieObject
 90
      499
 91
      502
 93
      121
310
9053130303A310000000000001650100
  0
ACAD_PROXY_OBJECT
  5
81
102
{ACAD_REACTORS
330
6F
102
}
330
6F
100
AcDbZombieObject
 90
      499
 91
      502
 93
      257
310
90E312F31323822203D2031272D3022000000000000200FC000000000000284000
  0
ACAD_PROXY_OBJECT
  5
82
102
{ACAD_REACTORS
330
6F
102
}
330
6F
100
AcDbZombieObject
 90
      499
 91
      502
 93
      249
310
90D312F363422203D2031272D3022000000000000240FC000000000000284000
  0
ACAD_PROXY_OBJECT
  5
83
102
{ACAD_REACTORS
330
6F
102
}
330
6F
100
AcDbZombieObject
 90
      499
 91
      502
 93
      249
310
90D312F333222203D2031272D3022000000000000280FC000000000000284000
  0
ACAD_PROXY_OBJECT
  5
84
102
{ACAD_REACTORS
330
6F
102
}
330
6F
100
AcDbZombieObject
 90
      499
 91
      502
 93
      249
310
90D312F313622203D2031272D30220000000000002C0FC000000000000284000
  0
ACAD_PROXY_OBJECT
  5
85
102
{ACAD_REACTORS
330
6F
102
}
330
6F
100
AcDbZombieObject
 90
      499
 91
      502
 93
      249
310
90D332F333222203D2031272D30220000000000002E0FC000000000000284000
  0
ACAD_PROXY_OBJECT
  5
86
102
{ACAD_REACTORS
330
6F
102
}
330
6F
100
AcDbZombieObject
 90
      499
 91
      502
 93
      241
310
90C312F3822203D2031272D3022000000000000300FC000000000000284000
  0
ACAD_PROXY_OBJECT
  5
87
102
{ACAD_REACTORS
330
6F
102
}
330
6F
100
AcDbZombieObject
 90
      499
 91
      502
 93
      249
310
90D332F313622203D2031272D3022000000000000320FC000000000000284000
  0
ACAD_PROXY_OBJECT
  5
88
102
{ACAD_REACTORS
330
6F
102
}
330
6F
100
AcDbZombieObject
 90
      499
 91
      502
 93
      241
310
90C312F3422203D2031272D3022000000000000340FC000000000000284000
  0
ACAD_PROXY_OBJECT
  5
89
102
{ACAD_REACTORS
330
6F
102
}
330
6F
100
AcDbZombieObject
 90
      499
 91
      502
 93
      241
310
90C332F3822203D2031272D3022000000000000360FC000000000000284000
  0
ACAD_PROXY_OBJECT
  5
8A
102
{ACAD_REACTORS
330
6F
102
}
330
6F
100
AcDbZombieObject
 90
      499
 91
      502
 93
      241
310
90C312F3222203D2031272D3022000000000000380FC000000000000284000
  0
ACAD_PROXY_OBJECT
  5
8B
102
{ACAD_REACTORS
330
6F
102
}
330
6F
100
AcDbZombieObject
 90
      499
 91
      502
 93
      241
310
90C332F3422203D2031272D30220000000000003A0FC000000000000284000
  0
ACAD_PROXY_OBJECT
  5
8C
102
{ACAD_REACTORS
330
6F
102
}
330
6F
100
AcDbZombieObject
 90
      499
 91
      502
 93
      161
310
90A3122203D2031272D30224000000000000284000
  0
ACAD_PROXY_OBJECT
  5
8D
102
{ACAD_REACTORS
330
6F
102
}
330
6F
100
AcDbZombieObject
 90
      499
 91
      502
 93
      257
310
90E312D312F3222203D2031272D30220000000000003E0FC000000000000284000
  0
ACAD_PROXY_OBJECT
  5
8E
102
{ACAD_REACTORS
330
6F
102
}
330
6F
100
AcDbZombieObject
 90
      499
 91
      502
 93
      225
310
90A3322203D2031272D302200000000000002100000000000000284000
  0
ACAD_PROXY_OBJECT
  5
8F
102
{ACAD_REACTORS
330
6F
102
}
330
6F
100
AcDbZombieObject
 90
      499
 91
      502
 93
      225
310
90A3622203D2031272D302200000000000006100000000000000284000
  0
ACAD_PROXY_OBJECT
  5
90
102
{ACAD_REACTORS
330
6F
102
}
330
6F
100
AcDbZombieObject
 90
      499
 91
      502
 93
      249
310
90D31272D3022203D2031272D30220000000000000A100000000000000284000
  0
ACAD_PROXY_OBJECT
  5
2F
102
{ACAD_REACTORS
330
2A
102
}
330
2A
100
AcDbZombieObject
 90
      499
 91
      501
 93
      436
310
42CC9915DA5C99599C985B595049028333333333333E3BF0000000000000FB0107901411070040501600405405064090741402480A0340
1001
ACAD
1000
AcDbSavedByObjectVersion
1070
     0
  0
ACAD_PROXY_OBJECT
  5
31
102
{ACAD_REACTORS
330
2A
102
}
330
2A
100
AcDbZombieObject
 90
      499
 91
      501
 93
      500
310
424CD108121A5919195B90640502408333333333333E3BF0000000000000FB01079024090700405020000000000001110200405405064090740C02480A0340
1001
ACAD
1000
AcDbSavedByObjectVersion
1070
     0
  0
ACAD_PROXY_OBJECT
  5
30
102
{ACAD_REACTORS
330
2A
102
}
330
2A
100
AcDbZombieObject
 90
      499
 91
      501
 93
      436
310
42CCD915DA5C99599C985B595059028333333333333E3BF0000000000000FB0107901411070040501600405405064090741402480A0340
1001
ACAD
1000
AcDbSavedByObjectVersion
1070
     0
  0
ACAD_PROXY_OBJECT
  5
32
102
{ACAD_REACTORS
330
2A
102
}
330
2A
100
AcDbZombieObject
 90
      499
 91
      501
 93
      388
310
4150985CDA58D07406404333333333333E3BF0000000000000FB0107A41107004050150841D405064090741402480A0350
1001
ACAD
1000
AcDbSavedByObjectVersion
1070
     0
  0
ACAD_PROXY_OBJECT
  5
36
102
{ACAD_REACTORS
330
2A
102
}
330
2A
100
AcDbZombieObject
 90
      499
 91
      501
 93
      428
310
42109C9A59DA1D195B90C409028333333333333E3BF0000000000000FB010790141107004050150841D405064090741402480A029950
1001
ACAD
1000
AcDbSavedByObjectVersion
1070
     0
  0
ACAD_PROXY_OBJECT
  5
3A
102
{ACAD_REACTORS
330
2A
102
}
330
2A
100
AcDbZombieObject
 90
      499
 91
      501
 93
      452
310
42D0DBDB1BDC90DA185B99D95104090240C333333333333E3BF0000000000000FB0108901411070040501508421405064090741402480A0350
1001
ACAD
1000
AcDbSavedByObjectVersion
1070
     0
  0
ACAD_PROXY_OBJECT
  5
34
102
{ACAD_REACTORS
330
2A
102
}
330
2A
100
AcDbZombieObject
 90
      499
 91
      501
 93
      500
310
4290DBDB98D95C1D1D585B10940D028333333333333E3BF0000000000000FB0107902409070040501000000000000111010841D405064090740C02480A0340
1001
ACAD
1000
AcDbSavedByObjectVersion
1070
     0
  0
ACAD_PROXY_OBJECT
  5
35
102
{ACAD_REACTORS
330
2A
102
}
330
2A
100
AcDbZombieObject
 90
      499
 91
      501
 93
      412
310
40D11A5B50B409028333333333333E3BF0000000000000FB010790141107004050150841D405064090741402480A02677FFFFFD0
1001
ACAD
1000
AcDbSavedByObjectVersion
1070
     0
  0
ACAD_PROXY_OBJECT
  5
39
102
{ACAD_REACTORS
330
2A
102
}
330
2A
100
AcDbZombieObject
 90
      499
 91
      501
 93
      444
310
42D19858D95C185D1D195C9B90F409028333333333333E3BF0000000000000FB010790141107004050150841D405064090741402480A0350
1001
ACAD
1000
AcDbSavedByObjectVersion
1070
     0
  0
ACAD_PROXY_OBJECT
  5
2B
102
{ACAD_REACTORS
330
2A
102
}
330
2A
100
AcDbZombieObject
 90
      499
 91
      501
 93
      388
310
41119B185D240901404333333333333E3BF0000000000000F9010740A41107004050150841D405064090741402480A1B50
1001
ACAD
1000
AcDbSavedByObjectVersion
1070
     0
  0
ACAD_PROXY_OBJECT
  5
2C
102
{ACAD_REACTORS
330
2A
102
}
330
2A
100
AcDbZombieObject
 90
      499
 91
      501
 93
      476
310
43519B185D15DA5D1A115919D95CD0140901404333333333333E3BF0000000000000F9010740901411070040501600405405064090741402480A1B50
1001
ACAD
1000
AcDbSavedByObjectVersion
1070
     0
  0
ACAD_PROXY_OBJECT
  5
2D
102
{ACAD_REACTORS
330
2A
102
}
330
2A
100
AcDbZombieObject
 90
      499
 91
      501
 93
      412
310
41D1DBDD5C985D5910240902404333333333333E3BF0000000000000F9010740A411070040501641D405064090741402480A1B50
1001
ACAD
1000
AcDbSavedByObjectVersion
1070
     0
  0
ACAD_PROXY_OBJECT
  5
2E
102
{ACAD_REACTORS
330
2A
102
}
330
2A
100
AcDbZombieObject
 90
      499
 91
      501
 93
      500
310
4411DBDD5C985D5915DA5D1A115919D95CD0340902404333333333333E3BF0000000000000F9010740901411070040501600405405064090741402480A1B50
1001
ACAD
1000
AcDbSavedByObjectVersion
1070
     0
  0
ACAD_PROXY_OBJECT
  5
38
102
{ACAD_REACTORS
330
2A
102
}
330
2A
100
AcDbZombieObject
 90
      499
 91
      501
 93
      444
310
42D31A5B995C185D1D195C9B90E409028333333333333E3BF0000000000000FB010790141107004050750841D405064090741402483A0350
1001
ACAD
1000
AcDbSavedByObjectVersion
1070
     0
  0
ACAD_PROXY_OBJECT
  5
33
102
{ACAD_REACTORS
330
2A
102
}
330
2A
100
AcDbZombieObject
 90
      499
 91
      501
 93
      420
310
425499585B1A5CDD1A58D08409028333333333333E3BF0000000000000FB01079019070040501508421405064090741402480A1B40
1001
ACAD
1000
AcDbSavedByObjectVersion
1070
     0
  0
ACAD_PROXY_OBJECT
  5
37
102
{ACAD_REACTORS
330
2A
102
}
330
2A
100
AcDbZombieObject
 90
      499
 91
      501
 93
      412
310
41D51A1A58DAD95B90D409028333333333333E3BF0000000000000FB010790141107004050150C41D405064090741402480A0350
1001
ACAD
1000
AcDbSavedByObjectVersion
1070
     0
  0
DICTIONARYVAR
  5
2AE
102
{ACAD_REACTORS
330
2AB
102
}
330
2AB
100
DictionaryVariables
280
     0
  1
1:1
  0
DICTIONARYVAR
  5
2AF
102
{ACAD_REACTORS
330
2AB
102
}
330
2AB
100
DictionaryVariables
280
     0
  1
2
  0
DICTIONARYVAR
  5
2B0
102
{ACAD_REACTORS
330
2AB
102
}
330
2AB
100
DictionaryVariables
280
     0
  1
1
  0
ENDSEC
  0
EOF
